ISO-10303-21;
HEADER;
FILE_DESCRIPTION (( 'STEP AP203' ),
    '1' );
FILE_NAME ('RT5_S12.STEP',
    '2024-04-15T12:36:34',
    ( '' ),
    ( '' ),
    'SwSTEP 2.0',
    'SolidWorks 2023',
    '' );
FILE_SCHEMA (( 'CONFIG_CONTROL_DESIGN' ));
ENDSEC;

DATA;
#1 = DIRECTION ( 'NONE',  ( -1.000000000000000000, 0.000000000000000000, -1.134597574595463386E-32 ) ) ;
#2 = AXIS2_PLACEMENT_3D ( 'NONE', #35, #53, #256 ) ;
#3 = CONICAL_SURFACE ( 'NONE', #223, 4.999999999999996447, 0.5235987755982982605 ) ;
#4 = AXIS2_PLACEMENT_3D ( 'NONE', #217, #38, #146 ) ;
#5 = UNCERTAINTY_MEASURE_WITH_UNIT (LENGTH_MEASURE( 1.000000000000000082E-05 ), #177, 'distance_accuracy_value', 'NONE');
#6 = CARTESIAN_POINT ( 'NONE',  ( 4.250000000000021316, 75.75000000000001421, 5.204748896376264504E-16 ) ) ;
#7 = DIRECTION ( 'NONE',  ( 9.542827139184045242E-17, 1.000000000000000000, 2.465190328815664081E-32 ) ) ;
#8 = AXIS2_PLACEMENT_3D ( 'NONE', #61, #314, #49 ) ;
#9 = VERTEX_POINT ( 'NONE', #158 ) ;
#10 = CC_DESIGN_DATE_AND_TIME_ASSIGNMENT ( #389, #65, ( #64 ) ) ;
#11 = DIRECTION ( 'NONE',  ( -9.542827139184045242E-17, -1.000000000000000000, -2.465190328815664081E-32 ) ) ;
#12 = VERTEX_POINT ( 'NONE', #383 ) ;
#13 = ORIENTED_EDGE ( 'NONE', *, *, #127, .F. ) ;
#14 = DIRECTION ( 'NONE',  ( 1.000000000000000000, 0.000000000000000000, 0.000000000000000000 ) ) ;
#15 = AXIS2_PLACEMENT_3D ( 'NONE', #333, #152, #95 ) ;
#16 = CARTESIAN_POINT ( 'NONE',  ( 5.999999999999993783, 38.00000000000000711, 0.000000000000000000 ) ) ;
#17 = APPROVAL_STATUS ( 'not_yet_approved' ) ;
#18 = CARTESIAN_POINT ( 'NONE',  ( -5.720178068461761611E-15, -47.31222647296823425, 0.000000000000000000 ) ) ;
#19 = DESIGN_CONTEXT ( 'detailed design', #289, 'design' ) ;
#20 = PRODUCT ( 'RT5_S12', 'RT5_S12', '', ( #103 ) ) ;
#21 = FACE_OUTER_BOUND ( 'NONE', #375, .T. ) ;
#22 = CC_DESIGN_APPROVAL ( #275, ( #298 ) ) ;
#23 = CARTESIAN_POINT ( 'NONE',  ( 6.849430430176071855E-15, 75.75000000000001421, -7.703719777548943412E-31 ) ) ;
#24 = DIRECTION ( 'NONE',  ( 0.000000000000000000, -1.000000000000000000, -2.465190328815661892E-32 ) ) ;
#25 = DIRECTION ( 'NONE',  ( -4.930380657631323784E-32, 1.000000000000000000, 0.000000000000000000 ) ) ;
#26 = DIRECTION ( 'NONE',  ( 1.134597574595463386E-32, 2.465190328815664081E-32, -1.000000000000000000 ) ) ;
#27 = ORIENTED_EDGE ( 'NONE', *, *, #182, .T. ) ;
#28 = ORIENTED_EDGE ( 'NONE', *, *, #144, .T. ) ;
#29 = EDGE_CURVE ( 'NONE', #222, #86, #99, .T. ) ;
#30 = AXIS2_PLACEMENT_3D ( 'NONE', #145, #380, #55 ) ;
#31 = CONICAL_SURFACE ( 'NONE', #266, 2.000000000000000000, 0.1745329251994334474 ) ;
#32 = APPROVAL ( #227, 'UNSPECIFIED' ) ;
#33 = ADVANCED_FACE ( 'NONE', ( #102 ), #143, .T. ) ;
#34 = VERTEX_POINT ( 'NONE', #132 ) ;
#35 = CARTESIAN_POINT ( 'NONE',  ( -5.720178068461761611E-15, -47.31222647296823425, 0.000000000000000000 ) ) ;
#36 = ORIENTED_EDGE ( 'NONE', *, *, #45, .F. ) ;
#37 = AXIS2_PLACEMENT_3D ( 'NONE', #93, #315, #207 ) ;
#38 = DIRECTION ( 'NONE',  ( -2.465190328815661892E-32, -1.000000000000000000, -0.000000000000000000 ) ) ;
#39 = CARTESIAN_POINT ( 'NONE',  ( 2.000000000000019096, 71.85288568297004019, 2.449293598294719233E-16 ) ) ;
#40 = ORIENTED_EDGE ( 'NONE', *, *, #96, .F. ) ;
#41 = CARTESIAN_POINT ( 'NONE',  ( -5.720178068461758455E-15, 60.68512727847078025, 0.000000000000000000 ) ) ;
#42 = PERSON_AND_ORGANIZATION_ROLE ( 'design_supplier' ) ;
#43 = FACE_OUTER_BOUND ( 'NONE', #54, .T. ) ;
#44 = CARTESIAN_POINT ( 'NONE',  ( -5.720178068461759244E-15, 38.00000000000000711, 0.000000000000000000 ) ) ;
#45 = EDGE_CURVE ( 'NONE', #12, #287, #336, .T. ) ;
#46 = DIRECTION ( 'NONE',  ( 1.000000000000000000, 0.000000000000000000, 0.000000000000000000 ) ) ;
#47 = CC_DESIGN_PERSON_AND_ORGANIZATION_ASSIGNMENT ( #129, #159, ( #20 ) ) ;
#48 = CIRCLE ( 'NONE', #131, 4.999999999999996447 ) ;
#49 = DIRECTION ( 'NONE',  ( -1.000000000000000000, 0.000000000000000000, 0.000000000000000000 ) ) ;
#50 = AXIS2_PLACEMENT_3D ( 'NONE', #299, #362, #78 ) ;
#51 = DIRECTION ( 'NONE',  ( -0.5000000000000011102, 0.8660254037844379305, 1.567618662620343551E-32 ) ) ;
#52 = ADVANCED_FACE ( 'NONE', ( #379 ), #31, .T. ) ;
#53 = DIRECTION ( 'NONE',  ( -2.465190328815661892E-32, -1.000000000000000000, -0.000000000000000000 ) ) ;
#54 = EDGE_LOOP ( 'NONE', ( #340, #369, #308, #225 ) ) ;
#55 = DIRECTION ( 'NONE',  ( -1.000000000000000000, 2.888894916580855969E-32, 0.000000000000000000 ) ) ;
#56 = ORIENTED_EDGE ( 'NONE', *, *, #96, .T. ) ;
#57 = ORIENTED_EDGE ( 'NONE', *, *, #393, .F. ) ;
#58 = LOCAL_TIME ( 13, 36, 34.00000000000000000, #229 ) ;
#59 = AXIS2_PLACEMENT_3D ( 'NONE', #110, #329, #303 ) ;
#60 = DIRECTION ( 'NONE',  ( -0.4999999999999995004, 0.8660254037844389297, 0.000000000000000000 ) ) ;
#61 = CARTESIAN_POINT ( 'NONE',  ( -5.720178068461760033E-15, 1.732050807568885631, 0.000000000000000000 ) ) ;
#62 = DIRECTION ( 'NONE',  ( -9.542827139184045242E-17, -1.000000000000000000, -2.465190328815664081E-32 ) ) ;
#63 = CYLINDRICAL_SURFACE ( 'NONE', #178, 6.000000000000000000 ) ;
#64 = SECURITY_CLASSIFICATION ( '', '', #107 ) ;
#65 = DATE_TIME_ROLE ( 'classification_date' ) ;
#66 = AXIS2_PLACEMENT_3D ( 'NONE', #44, #365, #331 ) ;
#67 = CC_DESIGN_APPROVAL ( #32, ( #279 ) ) ;
#68 = ORIENTED_EDGE ( 'NONE', *, *, #393, .T. ) ;
#69 = APPLICATION_PROTOCOL_DEFINITION ( 'international standard', 'config_control_design', 1994, #289 ) ;
#70 = CARTESIAN_POINT ( 'NONE',  ( 6.477535547485512916E-15, 71.85288568297004019, 0.000000000000000000 ) ) ;
#71 = PERSON_AND_ORGANIZATION ( #239, #236 ) ;
#72 = VERTEX_POINT ( 'NONE', #16 ) ;
#73 = PERSON_AND_ORGANIZATION ( #239, #236 ) ;
#74 = VECTOR ( 'NONE', #350, 1000.000000000000000 ) ;
#75 = CARTESIAN_POINT ( 'NONE',  ( -5.586766586726822522E-15, 75.75000000000000000, -2.311115933264683024E-30 ) ) ;
#76 = APPROVAL_ROLE ( '' ) ;
#77 = APPROVAL ( #361, 'UNSPECIFIED' ) ;
#78 = DIRECTION ( 'NONE',  ( 1.000000000000000000, 0.000000000000000000, 0.000000000000000000 ) ) ;
#79 = CIRCLE ( 'NONE', #85, 2.000000000000000444 ) ;
#80 = CARTESIAN_POINT ( 'NONE',  ( 4.999999999999990230, 3.627082360030118937E-16, 6.735557395310441037E-16 ) ) ;
#81 = EDGE_CURVE ( 'NONE', #12, #72, #324, .T. ) ;
#82 = LINE ( 'NONE', #206, #213 ) ;
#83 = DIRECTION ( 'NONE',  ( 2.465190328815661892E-32, 1.000000000000000000, 0.000000000000000000 ) ) ;
#84 = VERTEX_POINT ( 'NONE', #281 ) ;
#85 = AXIS2_PLACEMENT_3D ( 'NONE', #273, #62, #187 ) ;
#86 = VERTEX_POINT ( 'NONE', #6 ) ;
#87 = CONICAL_SURFACE ( 'NONE', #37, 2.000000000000000000, 0.1745329251994334474 ) ;
#88 = CYLINDRICAL_SURFACE ( 'NONE', #2, 2.000000000000000444 ) ;
#89 = ORIENTED_EDGE ( 'NONE', *, *, #311, .F. ) ;
#90 = EDGE_LOOP ( 'NONE', ( #68, #219 ) ) ;
#91 = ADVANCED_FACE ( 'NONE', ( #92 ), #63, .T. ) ;
#92 = FACE_OUTER_BOUND ( 'NONE', #228, .T. ) ;
#93 = CARTESIAN_POINT ( 'NONE',  ( -5.720178068461758455E-15, 60.68512727847078025, 0.000000000000000000 ) ) ;
#94 = DIRECTION ( 'NONE',  ( -2.465190328815661892E-32, -1.000000000000000000, -0.000000000000000000 ) ) ;
#95 = DIRECTION ( 'NONE',  ( -1.000000000000000000, -4.930380657631324879E-32, 0.000000000000000000 ) ) ;
#96 = EDGE_CURVE ( 'NONE', #251, #244, #237, .T. ) ;
#97 = ORIENTED_EDGE ( 'NONE', *, *, #45, .T. ) ;
#98 = LOCAL_TIME ( 13, 36, 34.00000000000000000, #224 ) ;
#99 = LINE ( 'NONE', #39, #108 ) ;
#100 = CC_DESIGN_DATE_AND_TIME_ASSIGNMENT ( #101, #387, ( #298 ) ) ;
#101 = DATE_AND_TIME ( #161, #335 ) ;
#102 = FACE_OUTER_BOUND ( 'NONE', #260, .T. ) ;
#103 = MECHANICAL_CONTEXT ( 'NONE', #270, 'mechanical' ) ;
#104 = EDGE_CURVE ( 'NONE', #222, #12, #238, .T. ) ;
#105 = DIRECTION ( 'NONE',  ( -0.1736481776669308308, -0.9848077530122080203, 2.126576849575777462E-17 ) ) ;
#106 = APPROVAL_PERSON_ORGANIZATION ( #261, #275, #170 ) ;
#107 = SECURITY_CLASSIFICATION_LEVEL ( 'unclassified' ) ;
#108 = VECTOR ( 'NONE', #125, 1000.000000000000114 ) ;
#109 = CYLINDRICAL_SURFACE ( 'NONE', #50, 2.000000000000000444 ) ;
#110 = CARTESIAN_POINT ( 'NONE',  ( -5.720178068461760033E-15, 1.732050807568885631, 0.000000000000000000 ) ) ;
#111 = LINE ( 'NONE', #396, #189 ) ;
#112 =( GEOMETRIC_REPRESENTATION_CONTEXT ( 3 ) GLOBAL_UNCERTAINTY_ASSIGNED_CONTEXT ( ( #5 ) ) GLOBAL_UNIT_ASSIGNED_CONTEXT ( ( #177, #243, #304 ) ) REPRESENTATION_CONTEXT ( 'NONE', 'WORKASPACE' ) );
#113 = CARTESIAN_POINT ( 'NONE',  ( 1.999999999999994893, -47.31222647296823425, 0.000000000000000000 ) ) ;
#114 = DIRECTION ( 'NONE',  ( -1.000000000000000000, 0.000000000000000000, -1.134597574595464344E-32 ) ) ;
#115 = DIRECTION ( 'NONE',  ( -1.000000000000000000, 0.000000000000000000, 1.224646799147352468E-16 ) ) ;
#116 = ORIENTED_EDGE ( 'NONE', *, *, #323, .F. ) ;
#117 = CARTESIAN_POINT ( 'NONE',  ( 6.477535547485512916E-15, 71.85288568297004019, 0.000000000000000000 ) ) ;
#118 = AXIS2_PLACEMENT_3D ( 'NONE', #313, #11, #285 ) ;
#119 = CIRCLE ( 'NONE', #59, 6.000000000000000000 ) ;
#120 = AXIS2_PLACEMENT_3D ( 'NONE', #18, #167, #46 ) ;
#121 = EDGE_LOOP ( 'NONE', ( #316, #128, #36, #377 ) ) ;
#122 = EDGE_CURVE ( 'NONE', #305, #84, #155, .T. ) ;
#123 = CARTESIAN_POINT ( 'NONE',  ( -5.720178068461761611E-15, -47.31222647296823425, 0.000000000000000000 ) ) ;
#124 = LINE ( 'NONE', #337, #245 ) ;
#125 = DIRECTION ( 'NONE',  ( 0.5000000000000012212, 0.8660254037844379305, 6.123233995736777129E-17 ) ) ;
#126 = CARTESIAN_POINT ( 'NONE',  ( -5.794076671065521800E-15, 3.627082360030120909E-16, 0.000000000000000000 ) ) ;
#127 = EDGE_CURVE ( 'NONE', #208, #222, #397, .T. ) ;
#128 = ORIENTED_EDGE ( 'NONE', *, *, #139, .T. ) ;
#129 = PERSON_AND_ORGANIZATION ( #239, #236 ) ;
#130 = EDGE_LOOP ( 'NONE', ( #97, #149, #242, #345 ) ) ;
#131 = AXIS2_PLACEMENT_3D ( 'NONE', #180, #278, #332 ) ;
#132 = CARTESIAN_POINT ( 'NONE',  ( -5.000000000000002665, 3.627082360030121895E-16, 0.000000000000000000 ) ) ;
#133 = CARTESIAN_POINT ( 'NONE',  ( -5.720178068461759244E-15, 38.00000000000000711, 0.000000000000000000 ) ) ;
#134 = DIRECTION ( 'NONE',  ( -1.000000000000000000, -4.930380657631324879E-32, 0.000000000000000000 ) ) ;
#135 = CC_DESIGN_SECURITY_CLASSIFICATION ( #64, ( #279 ) ) ;
#136 = APPLICATION_PROTOCOL_DEFINITION ( 'international standard', 'config_control_design', 1994, #270 ) ;
#137 = CIRCLE ( 'NONE', #118, 4.250000000000012434 ) ;
#138 = DIRECTION ( 'NONE',  ( -9.542827139184045242E-17, -1.000000000000000000, -2.465190328815664081E-32 ) ) ;
#139 = EDGE_CURVE ( 'NONE', #208, #287, #111, .T. ) ;
#140 = DIRECTION ( 'NONE',  ( -2.465190328815661892E-32, -1.000000000000000000, -0.000000000000000000 ) ) ;
#141 = LINE ( 'NONE', #394, #344 ) ;
#142 = CARTESIAN_POINT ( 'NONE',  ( -2.000000000000005773, 60.68512727847078025, 4.898587196589412829E-16 ) ) ;
#143 = CONICAL_SURFACE ( 'NONE', #309, 2.000000000000012434, 0.5235987755983000369 ) ;
#144 = EDGE_CURVE ( 'NONE', #208, #84, #328, .T. ) ;
#145 = CARTESIAN_POINT ( 'NONE',  ( -5.720178068461760033E-15, 3.627082360030120416E-16, 0.000000000000000000 ) ) ;
#146 = DIRECTION ( 'NONE',  ( 1.000000000000000000, 0.000000000000000000, 0.000000000000000000 ) ) ;
#147 = ORIENTED_EDGE ( 'NONE', *, *, #306, .F. ) ;
#148 = AXIS2_PLACEMENT_3D ( 'NONE', #117, #7, #114 ) ;
#149 = ORIENTED_EDGE ( 'NONE', *, *, #212, .T. ) ;
#150 = MANIFOLD_SOLID_BREP ( '-1', #253 ) ;
#151 = CARTESIAN_POINT ( 'NONE',  ( 1.999999999999994449, 60.68512727847078025, 0.000000000000000000 ) ) ;
#152 = DIRECTION ( 'NONE',  ( -4.930380657631323784E-32, 1.000000000000000000, 0.000000000000000000 ) ) ;
#153 = LOCAL_TIME ( 13, 36, 34.00000000000000000, #220 ) ;
#154 = ORIENTED_EDGE ( 'NONE', *, *, #318, .F. ) ;
#155 = CIRCLE ( 'NONE', #371, 4.250000000000003553 ) ;
#156 = AXIS2_PLACEMENT_3D ( 'NONE', #358, #193, #196 ) ;
#157 = FACE_OUTER_BOUND ( 'NONE', #381, .T. ) ;
#158 = CARTESIAN_POINT ( 'NONE',  ( -6.000000000000006217, 38.00000000000000711, 7.347880794884119736E-16 ) ) ;
#159 = PERSON_AND_ORGANIZATION_ROLE ( 'design_owner' ) ;
#160 = ORIENTED_EDGE ( 'NONE', *, *, #29, .T. ) ;
#161 = CALENDAR_DATE ( 2024, 15, 4 ) ;
#162 = ORIENTED_EDGE ( 'NONE', *, *, #127, .T. ) ;
#163 = CC_DESIGN_APPROVAL ( #77, ( #64 ) ) ;
#164 = PERSON_AND_ORGANIZATION ( #239, #236 ) ;
#165 = ADVANCED_BREP_SHAPE_REPRESENTATION ( 'RT5_S12', ( #150, #283 ), #112 ) ;
#166 = EDGE_CURVE ( 'NONE', #72, #9, #204, .T. ) ;
#167 = DIRECTION ( 'NONE',  ( -2.465190328815661892E-32, -1.000000000000000000, -0.000000000000000000 ) ) ;
#168 = CALENDAR_DATE ( 2024, 15, 4 ) ;
#169 = CARTESIAN_POINT ( 'NONE',  ( -1.999999999999994005, 71.85288568297002598, -5.555237129468125191E-46 ) ) ;
#170 = APPROVAL_ROLE ( '' ) ;
#171 = DIRECTION ( 'NONE',  ( 1.134597574595463386E-32, 2.465190328815664081E-32, -1.000000000000000000 ) ) ;
#172 = AXIS2_PLACEMENT_3D ( 'NONE', #23, #138, #268 ) ;
#173 = EDGE_CURVE ( 'NONE', #244, #251, #119, .T. ) ;
#174 = VECTOR ( 'NONE', #60, 1000.000000000000114 ) ;
#175 = CARTESIAN_POINT ( 'NONE',  ( 4.999999999999990230, 9.381042651598586537E-31, 6.123233995736762338E-16 ) ) ;
#176 = DIRECTION ( 'NONE',  ( 0.4999999999999995004, 0.8660254037844389297, 6.123233995736758640E-17 ) ) ;
#177 =( LENGTH_UNIT ( ) NAMED_UNIT ( * ) SI_UNIT ( .MILLI., .METRE. ) );
#178 = AXIS2_PLACEMENT_3D ( 'NONE', #123, #216, #347 ) ;
#179 = ORIENTED_EDGE ( 'NONE', *, *, #368, .F. ) ;
#180 = CARTESIAN_POINT ( 'NONE',  ( -5.720178068461760033E-15, 3.627082360030120416E-16, 0.000000000000000000 ) ) ;
#181 = ORIENTED_EDGE ( 'NONE', *, *, #248, .T. ) ;
#182 = EDGE_CURVE ( 'NONE', #191, #244, #367, .T. ) ;
#183 = CIRCLE ( 'NONE', #259, 4.250000000000001776 ) ;
#184 = ORIENTED_EDGE ( 'NONE', *, *, #173, .F. ) ;
#185 = CARTESIAN_POINT ( 'NONE',  ( -5.586766586726822522E-15, 75.75000000000000000, -2.311115933264683024E-30 ) ) ;
#186 = EDGE_LOOP ( 'NONE', ( #274, #162, #249, #89 ) ) ;
#187 = DIRECTION ( 'NONE',  ( -1.000000000000000000, 0.000000000000000000, 0.000000000000000000 ) ) ;
#188 = EDGE_LOOP ( 'NONE', ( #374, #13, #28, #181 ) ) ;
#189 = VECTOR ( 'NONE', #140, 1000.000000000000000 ) ;
#190 = PERSON_AND_ORGANIZATION ( #239, #236 ) ;
#191 = VERTEX_POINT ( 'NONE', #80 ) ;
#192 = CALENDAR_DATE ( 2024, 15, 4 ) ;
#193 = DIRECTION ( 'NONE',  ( -2.465190328815661892E-32, -1.000000000000000000, -0.000000000000000000 ) ) ;
#194 = PERSON_AND_ORGANIZATION_ROLE ( 'creator' ) ;
#195 = ADVANCED_FACE ( 'NONE', ( #21 ), #3, .T. ) ;
#196 = DIRECTION ( 'NONE',  ( 1.000000000000000000, 0.000000000000000000, 0.000000000000000000 ) ) ;
#197 = PERSON_AND_ORGANIZATION ( #239, #236 ) ;
#198 = SPHERICAL_SURFACE ( 'NONE', #390, 4.250000000000001776 ) ;
#199 = SHAPE_DEFINITION_REPRESENTATION ( #214, #165 ) ;
#200 = CARTESIAN_POINT ( 'NONE',  ( 5.999999999999993783, 1.732050807568885631, 7.347880794884119736E-16 ) ) ;
#201 = EDGE_CURVE ( 'NONE', #9, #251, #141, .T. ) ;
#202 = CARTESIAN_POINT ( 'NONE',  ( -5.586766586726822522E-15, 75.75000000000000000, -2.311115933264683024E-30 ) ) ;
#203 = CIRCLE ( 'NONE', #4, 2.000000000000000000 ) ;
#204 = CIRCLE ( 'NONE', #66, 6.000000000000000000 ) ;
#205 = CARTESIAN_POINT ( 'NONE',  ( 6.477535547485509760E-15, 71.85288568297002598, -5.555237129468125191E-46 ) ) ;
#206 = CARTESIAN_POINT ( 'NONE',  ( -2.000000000000005773, 60.68512727847078025, 2.449293598294706414E-16 ) ) ;
#207 = DIRECTION ( 'NONE',  ( 1.000000000000000000, 0.000000000000000000, 0.000000000000000000 ) ) ;
#208 = VERTEX_POINT ( 'NONE', #169 ) ;
#209 = CIRCLE ( 'NONE', #172, 4.250000000000012434 ) ;
#210 = LINE ( 'NONE', #400, #174 ) ;
#211 = EDGE_LOOP ( 'NONE', ( #321, #341, #262 ) ) ;
#212 = EDGE_CURVE ( 'NONE', #287, #9, #82, .T. ) ;
#213 = VECTOR ( 'NONE', #105, 1000.000000000000000 ) ;
#214 = PRODUCT_DEFINITION_SHAPE ( 'NONE', 'NONE',  #298 ) ;
#215 = ADVANCED_FACE ( 'NONE', ( #43 ), #302, .T. ) ;
#216 = DIRECTION ( 'NONE',  ( -2.465190328815661892E-32, -1.000000000000000000, -0.000000000000000000 ) ) ;
#217 = CARTESIAN_POINT ( 'NONE',  ( -5.720178068461758455E-15, 60.68512727847078025, 0.000000000000000000 ) ) ;
#218 = CC_DESIGN_PERSON_AND_ORGANIZATION_ASSIGNMENT ( #164, #293, ( #64 ) ) ;
#219 = ORIENTED_EDGE ( 'NONE', *, *, #368, .T. ) ;
#220 = COORDINATED_UNIVERSAL_TIME_OFFSET ( 0, 0, .AHEAD. ) ;
#221 = AXIS2_PLACEMENT_3D ( 'NONE', #185, #26, #1 ) ;
#222 = VERTEX_POINT ( 'NONE', #294 ) ;
#223 = AXIS2_PLACEMENT_3D ( 'NONE', #388, #25, #134 ) ;
#224 = COORDINATED_UNIVERSAL_TIME_OFFSET ( 0, 0, .AHEAD. ) ;
#225 = ORIENTED_EDGE ( 'NONE', *, *, #173, .T. ) ;
#226 = EDGE_CURVE ( 'NONE', #9, #72, #342, .T. ) ;
#227 = APPROVAL_STATUS ( 'not_yet_approved' ) ;
#228 = EDGE_LOOP ( 'NONE', ( #310, #252, #56, #401 ) ) ;
#229 = COORDINATED_UNIVERSAL_TIME_OFFSET ( 0, 0, .AHEAD. ) ;
#230 = DIRECTION ( 'NONE',  ( -1.000000000000000000, 0.000000000000000000, 0.000000000000000000 ) ) ;
#231 = CARTESIAN_POINT ( 'NONE',  ( 0.000000000000000000, 0.000000000000000000, 0.000000000000000000 ) ) ;
#232 = ADVANCED_FACE ( 'NONE', ( #360 ), #198, .T. ) ;
#233 = DIRECTION ( 'NONE',  ( -1.000000000000000000, 0.000000000000000000, -1.134597574595463386E-32 ) ) ;
#234 = CARTESIAN_POINT ( 'NONE',  ( -6.000000000000006217, 1.732050807568885631, 0.000000000000000000 ) ) ;
#235 = DIRECTION ( 'NONE',  ( -2.465190328815661892E-32, -1.000000000000000000, -0.000000000000000000 ) ) ;
#236 = ORGANIZATION ( 'UNSPECIFIED', 'UNSPECIFIED', '' ) ;
#237 = CIRCLE ( 'NONE', #8, 6.000000000000000000 ) ;
#238 = LINE ( 'NONE', #113, #391 ) ;
#239 = PERSON ( 'UNSPECIFIED', 'UNSPECIFIED', 'UNSPECIFIED', ('UNSPECIFIED'), ('UNSPECIFIED'), ('UNSPECIFIED') ) ;
#240 = ADVANCED_FACE ( 'NONE', ( #297 ), #109, .T. ) ;
#241 = DIRECTION ( 'NONE',  ( -1.224646799147352221E-16, 3.633849599897486644E-32, -1.000000000000000000 ) ) ;
#242 = ORIENTED_EDGE ( 'NONE', *, *, #166, .F. ) ;
#243 =( NAMED_UNIT ( * ) PLANE_ANGLE_UNIT ( ) SI_UNIT ( $, .RADIAN. ) );
#244 = VERTEX_POINT ( 'NONE', #200 ) ;
#245 = VECTOR ( 'NONE', #339, 1000.000000000000000 ) ;
#246 = VECTOR ( 'NONE', #51, 1000.000000000000114 ) ;
#247 = CARTESIAN_POINT ( 'NONE',  ( -5.586766586726822522E-15, 75.75000000000000000, -2.311115933264683024E-30 ) ) ;
#248 = EDGE_CURVE ( 'NONE', #84, #86, #209, .T. ) ;
#249 = ORIENTED_EDGE ( 'NONE', *, *, #104, .T. ) ;
#250 = ORIENTED_EDGE ( 'NONE', *, *, #295, .T. ) ;
#251 = VERTEX_POINT ( 'NONE', #234 ) ;
#252 = ORIENTED_EDGE ( 'NONE', *, *, #201, .T. ) ;
#253 = CLOSED_SHELL ( 'NONE', ( #240, #52, #91, #386, #232, #33, #349, #343, #364, #215, #195, #272, #277 ) ) ;
#254 = DIRECTION ( 'NONE',  ( -1.000000000000000000, 2.465190328815661892E-32, 0.000000000000000000 ) ) ;
#255 = DIRECTION ( 'NONE',  ( -1.000000000000000000, 0.000000000000000000, -1.134597574595464344E-32 ) ) ;
#256 = DIRECTION ( 'NONE',  ( 1.000000000000000000, 0.000000000000000000, 0.000000000000000000 ) ) ;
#257 = ORIENTED_EDGE ( 'NONE', *, *, #295, .F. ) ;
#258 = APPROVAL_DATE_TIME ( #355, #32 ) ;
#259 = AXIS2_PLACEMENT_3D ( 'NONE', #247, #241, #115 ) ;
#260 = EDGE_LOOP ( 'NONE', ( #116, #160, #250, #385 ) ) ;
#261 = PERSON_AND_ORGANIZATION ( #239, #236 ) ;
#262 = ORIENTED_EDGE ( 'NONE', *, *, #248, .F. ) ;
#263 = DIRECTION ( 'NONE',  ( 1.000000000000000000, 0.000000000000000000, 0.000000000000000000 ) ) ;
#264 = COORDINATED_UNIVERSAL_TIME_OFFSET ( 0, 0, .AHEAD. ) ;
#265 = DIRECTION ( 'NONE',  ( -2.465190328815661892E-32, -1.000000000000000000, -0.000000000000000000 ) ) ;
#266 = AXIS2_PLACEMENT_3D ( 'NONE', #41, #94, #291 ) ;
#267 = CALENDAR_DATE ( 2024, 15, 4 ) ;
#268 = DIRECTION ( 'NONE',  ( 1.000000000000000000, 0.000000000000000000, 1.134597574595464207E-32 ) ) ;
#269 = DIRECTION ( 'NONE',  ( -1.134597574595464618E-32, -2.465190328815664081E-32, 1.000000000000000000 ) ) ;
#270 = APPLICATION_CONTEXT ( 'configuration controlled 3d designs of mechanical parts and assemblies' ) ;
#271 = DIRECTION ( 'NONE',  ( -2.465190328815661892E-32, -1.000000000000000000, -0.000000000000000000 ) ) ;
#272 = ADVANCED_FACE ( 'NONE', ( #363 ), #373, .T. ) ;
#273 = CARTESIAN_POINT ( 'NONE',  ( 6.477535547485509760E-15, 71.85288568297002598, -5.555237129468125191E-46 ) ) ;
#274 = ORIENTED_EDGE ( 'NONE', *, *, #139, .F. ) ;
#275 = APPROVAL ( #17, 'UNSPECIFIED' ) ;
#276 = FACE_OUTER_BOUND ( 'NONE', #186, .T. ) ;
#277 = ADVANCED_FACE ( 'NONE', ( #282 ), #317, .T. ) ;
#278 = DIRECTION ( 'NONE',  ( -2.465190328815661892E-32, -1.000000000000000000, -0.000000000000000000 ) ) ;
#279 = PRODUCT_DEFINITION_FORMATION_WITH_SPECIFIED_SOURCE ( 'ANY', '', #20, .NOT_KNOWN. ) ;
#280 = CC_DESIGN_PERSON_AND_ORGANIZATION_ASSIGNMENT ( #71, #194, ( #279 ) ) ;
#281 = CARTESIAN_POINT ( 'NONE',  ( -4.250000000000007105, 75.75000000000001421, 4.785088832600602925E-32 ) ) ;
#282 = FACE_OUTER_BOUND ( 'NONE', #188, .T. ) ;
#283 = AXIS2_PLACEMENT_3D ( 'NONE', #231, #322, #14 ) ;
#284 = ORIENTED_EDGE ( 'NONE', *, *, #212, .F. ) ;
#285 = DIRECTION ( 'NONE',  ( 1.000000000000000000, 0.000000000000000000, 1.134597574595464207E-32 ) ) ;
#286 = DIRECTION ( 'NONE',  ( 9.542827139184045242E-17, 1.000000000000000000, 2.465190328815664081E-32 ) ) ;
#287 = VERTEX_POINT ( 'NONE', #142 ) ;
#288 = APPROVAL_ROLE ( '' ) ;
#289 = APPLICATION_CONTEXT ( 'configuration controlled 3d designs of mechanical parts and assemblies' ) ;
#290 = APPROVAL_PERSON_ORGANIZATION ( #190, #32, #288 ) ;
#291 = DIRECTION ( 'NONE',  ( 1.000000000000000000, 0.000000000000000000, 0.000000000000000000 ) ) ;
#292 = VECTOR ( 'NONE', #176, 1000.000000000000114 ) ;
#293 = PERSON_AND_ORGANIZATION_ROLE ( 'classification_officer' ) ;
#294 = CARTESIAN_POINT ( 'NONE',  ( 2.000000000000007105, 71.85288568297002598, 3.827021247335477817E-16 ) ) ;
#295 = EDGE_CURVE ( 'NONE', #86, #84, #137, .T. ) ;
#296 = COORDINATED_UNIVERSAL_TIME_OFFSET ( 0, 0, .AHEAD. ) ;
#297 = FACE_OUTER_BOUND ( 'NONE', #121, .T. ) ;
#298 = PRODUCT_DEFINITION ( 'UNKNOWN', '', #279, #19 ) ;
#299 = CARTESIAN_POINT ( 'NONE',  ( -5.720178068461761611E-15, -47.31222647296823425, 0.000000000000000000 ) ) ;
#300 = APPROVAL_PERSON_ORGANIZATION ( #325, #77, #76 ) ;
#301 = AXIS2_PLACEMENT_3D ( 'NONE', #133, #265, #263 ) ;
#302 = CYLINDRICAL_SURFACE ( 'NONE', #120, 6.000000000000000000 ) ;
#303 = DIRECTION ( 'NONE',  ( -1.000000000000000000, 0.000000000000000000, 0.000000000000000000 ) ) ;
#304 =( NAMED_UNIT ( * ) SI_UNIT ( $, .STERADIAN. ) SOLID_ANGLE_UNIT ( ) );
#305 = VERTEX_POINT ( 'NONE', #348 ) ;
#306 = EDGE_CURVE ( 'NONE', #34, #251, #210, .T. ) ;
#307 = FACE_OUTER_BOUND ( 'NONE', #90, .T. ) ;
#308 = ORIENTED_EDGE ( 'NONE', *, *, #334, .T. ) ;
#309 = AXIS2_PLACEMENT_3D ( 'NONE', #70, #286, #255 ) ;
#310 = ORIENTED_EDGE ( 'NONE', *, *, #166, .T. ) ;
#311 = EDGE_CURVE ( 'NONE', #287, #12, #203, .T. ) ;
#312 = EDGE_LOOP ( 'NONE', ( #154, #338, #257 ) ) ;
#313 = CARTESIAN_POINT ( 'NONE',  ( 6.849430430176071855E-15, 75.75000000000001421, -7.703719777548943412E-31 ) ) ;
#314 = DIRECTION ( 'NONE',  ( -4.930380657631323784E-32, 1.000000000000000000, 0.000000000000000000 ) ) ;
#315 = DIRECTION ( 'NONE',  ( -2.465190328815661892E-32, -1.000000000000000000, -0.000000000000000000 ) ) ;
#316 = ORIENTED_EDGE ( 'NONE', *, *, #323, .T. ) ;
#317 = CONICAL_SURFACE ( 'NONE', #148, 2.000000000000012434, 0.5235987755983000369 ) ;
#318 = EDGE_CURVE ( 'NONE', #305, #86, #183, .T. ) ;
#319 = APPROVAL_DATE_TIME ( #351, #77 ) ;
#320 = ORIENTED_EDGE ( 'NONE', *, *, #306, .T. ) ;
#321 = ORIENTED_EDGE ( 'NONE', *, *, #122, .F. ) ;
#322 = DIRECTION ( 'NONE',  ( 0.000000000000000000, 0.000000000000000000, 1.000000000000000000 ) ) ;
#323 = EDGE_CURVE ( 'NONE', #222, #208, #79, .T. ) ;
#324 = LINE ( 'NONE', #151, #74 ) ;
#325 = PERSON_AND_ORGANIZATION ( #239, #236 ) ;
#326 = CC_DESIGN_PERSON_AND_ORGANIZATION_ASSIGNMENT ( #73, #384, ( #298 ) ) ;
#327 = CARTESIAN_POINT ( 'NONE',  ( -2.000000000000006217, 71.85288568297004019, -2.269195149190942920E-32 ) ) ;
#328 = LINE ( 'NONE', #327, #246 ) ;
#329 = DIRECTION ( 'NONE',  ( -4.930380657631323784E-32, 1.000000000000000000, 0.000000000000000000 ) ) ;
#330 = LOCAL_TIME ( 13, 36, 34.00000000000000000, #296 ) ;
#331 = DIRECTION ( 'NONE',  ( 1.000000000000000000, 0.000000000000000000, 0.000000000000000000 ) ) ;
#332 = DIRECTION ( 'NONE',  ( -1.000000000000000000, 2.888894916580855969E-32, 0.000000000000000000 ) ) ;
#333 = CARTESIAN_POINT ( 'NONE',  ( -5.720178068461760033E-15, 6.915852322782926397E-31, 0.000000000000000000 ) ) ;
#334 = EDGE_CURVE ( 'NONE', #72, #244, #124, .T. ) ;
#335 = LOCAL_TIME ( 13, 36, 34.00000000000000000, #264 ) ;
#336 = CIRCLE ( 'NONE', #156, 2.000000000000000000 ) ;
#337 = CARTESIAN_POINT ( 'NONE',  ( 5.999999999999993783, -47.31222647296823425, 0.000000000000000000 ) ) ;
#338 = ORIENTED_EDGE ( 'NONE', *, *, #122, .T. ) ;
#339 = DIRECTION ( 'NONE',  ( -2.465190328815661892E-32, -1.000000000000000000, -0.000000000000000000 ) ) ;
#340 = ORIENTED_EDGE ( 'NONE', *, *, #201, .F. ) ;
#341 = ORIENTED_EDGE ( 'NONE', *, *, #318, .T. ) ;
#342 = CIRCLE ( 'NONE', #301, 6.000000000000000000 ) ;
#343 = ADVANCED_FACE ( 'NONE', ( #307 ), #398, .F. ) ;
#344 = VECTOR ( 'NONE', #271, 1000.000000000000000 ) ;
#345 = ORIENTED_EDGE ( 'NONE', *, *, #81, .F. ) ;
#346 = CC_DESIGN_PERSON_AND_ORGANIZATION_ASSIGNMENT ( #197, #42, ( #279 ) ) ;
#347 = DIRECTION ( 'NONE',  ( 1.000000000000000000, 0.000000000000000000, 0.000000000000000000 ) ) ;
#348 = CARTESIAN_POINT ( 'NONE',  ( -5.441433878130313513E-15, 80.00000000000000000, -2.206345344290017393E-30 ) ) ;
#349 = ADVANCED_FACE ( 'NONE', ( #276 ), #88, .T. ) ;
#350 = DIRECTION ( 'NONE',  ( 0.1736481776669308308, -0.9848077530122080203, 0.000000000000000000 ) ) ;
#351 = DATE_AND_TIME ( #192, #330 ) ;
#352 = CONICAL_SURFACE ( 'NONE', #15, 4.999999999999996447, 0.5235987755982982605 ) ;
#353 = ORIENTED_EDGE ( 'NONE', *, *, #81, .T. ) ;
#354 = PRODUCT_RELATED_PRODUCT_CATEGORY ( 'detail', '', ( #20 ) ) ;
#355 = DATE_AND_TIME ( #357, #98 ) ;
#356 = ORIENTED_EDGE ( 'NONE', *, *, #182, .F. ) ;
#357 = CALENDAR_DATE ( 2024, 15, 4 ) ;
#358 = CARTESIAN_POINT ( 'NONE',  ( -5.720178068461758455E-15, 60.68512727847078025, 0.000000000000000000 ) ) ;
#359 = DATE_AND_TIME ( #267, #58 ) ;
#360 = FACE_OUTER_BOUND ( 'NONE', #211, .T. ) ;
#361 = APPROVAL_STATUS ( 'not_yet_approved' ) ;
#362 = DIRECTION ( 'NONE',  ( -2.465190328815661892E-32, -1.000000000000000000, -0.000000000000000000 ) ) ;
#363 = FACE_OUTER_BOUND ( 'NONE', #312, .T. ) ;
#364 = ADVANCED_FACE ( 'NONE', ( #378 ), #87, .T. ) ;
#365 = DIRECTION ( 'NONE',  ( -2.465190328815661892E-32, -1.000000000000000000, -0.000000000000000000 ) ) ;
#366 = CIRCLE ( 'NONE', #30, 4.999999999999996447 ) ;
#367 = LINE ( 'NONE', #175, #292 ) ;
#368 = EDGE_CURVE ( 'NONE', #191, #34, #366, .T. ) ;
#369 = ORIENTED_EDGE ( 'NONE', *, *, #226, .T. ) ;
#370 = EDGE_LOOP ( 'NONE', ( #284, #376, #353, #399 ) ) ;
#371 = AXIS2_PLACEMENT_3D ( 'NONE', #75, #269, #24 ) ;
#372 = AXIS2_PLACEMENT_3D ( 'NONE', #126, #83, #254 ) ;
#373 = SPHERICAL_SURFACE ( 'NONE', #221, 4.250000000000001776 ) ;
#374 = ORIENTED_EDGE ( 'NONE', *, *, #29, .F. ) ;
#375 = EDGE_LOOP ( 'NONE', ( #356, #57, #320, #184 ) ) ;
#376 = ORIENTED_EDGE ( 'NONE', *, *, #311, .T. ) ;
#377 = ORIENTED_EDGE ( 'NONE', *, *, #104, .F. ) ;
#378 = FACE_OUTER_BOUND ( 'NONE', #370, .T. ) ;
#379 = FACE_OUTER_BOUND ( 'NONE', #130, .T. ) ;
#380 = DIRECTION ( 'NONE',  ( -2.465190328815661892E-32, -1.000000000000000000, -0.000000000000000000 ) ) ;
#381 = EDGE_LOOP ( 'NONE', ( #179, #27, #40, #147 ) ) ;
#382 = AXIS2_PLACEMENT_3D ( 'NONE', #205, #395, #230 ) ;
#383 = CARTESIAN_POINT ( 'NONE',  ( 1.999999999999994449, 60.68512727847078025, 0.000000000000000000 ) ) ;
#384 = PERSON_AND_ORGANIZATION_ROLE ( 'creator' ) ;
#385 = ORIENTED_EDGE ( 'NONE', *, *, #144, .F. ) ;
#386 = ADVANCED_FACE ( 'NONE', ( #157 ), #352, .T. ) ;
#387 = DATE_TIME_ROLE ( 'creation_date' ) ;
#388 = CARTESIAN_POINT ( 'NONE',  ( -5.720178068461760033E-15, 6.915852322782926397E-31, 0.000000000000000000 ) ) ;
#389 = DATE_AND_TIME ( #168, #153 ) ;
#390 = AXIS2_PLACEMENT_3D ( 'NONE', #202, #171, #233 ) ;
#391 = VECTOR ( 'NONE', #235, 1000.000000000000000 ) ;
#392 = APPROVAL_DATE_TIME ( #359, #275 ) ;
#393 = EDGE_CURVE ( 'NONE', #34, #191, #48, .T. ) ;
#394 = CARTESIAN_POINT ( 'NONE',  ( -6.000000000000006217, -47.31222647296823425, 7.347880794884119736E-16 ) ) ;
#395 = DIRECTION ( 'NONE',  ( -9.542827139184045242E-17, -1.000000000000000000, -2.465190328815664081E-32 ) ) ;
#396 = CARTESIAN_POINT ( 'NONE',  ( -2.000000000000006217, -47.31222647296823425, 2.449293598294706907E-16 ) ) ;
#397 = CIRCLE ( 'NONE', #382, 2.000000000000000444 ) ;
#398 = PLANE ( 'NONE',  #372 ) ;
#399 = ORIENTED_EDGE ( 'NONE', *, *, #226, .F. ) ;
#400 = CARTESIAN_POINT ( 'NONE',  ( -5.000000000000002665, 4.450661993967265381E-31, 0.000000000000000000 ) ) ;
#401 = ORIENTED_EDGE ( 'NONE', *, *, #334, .F. ) ;
ENDSEC;
END-ISO-10303-21;
