ISO-10303-21;
HEADER;
FILE_DESCRIPTION (( 'STEP AP203' ),
    '1' );
FILE_NAME ('RT15_S12.STEP',
    '2024-04-15T12:54:21',
    ( '' ),
    ( '' ),
    'SwSTEP 2.0',
    'SolidWorks 2023',
    '' );
FILE_SCHEMA (( 'CONFIG_CONTROL_DESIGN' ));
ENDSEC;

DATA;
#1 = APPROVAL ( #320, 'UNSPECIFIED' ) ;
#2 = AXIS2_PLACEMENT_3D ( 'NONE', #234, #303, #62 ) ;
#3 = ORIENTED_EDGE ( 'NONE', *, *, #186, .T. ) ;
#4 = CARTESIAN_POINT ( 'NONE',  ( 7.347880794884124666E-16, 58.07742804278746007, -6.000000000000005329 ) ) ;
#5 = ORIENTED_EDGE ( 'NONE', *, *, #55, .T. ) ;
#6 = EDGE_CURVE ( 'NONE', #247, #275, #224, .T. ) ;
#7 = VERTEX_POINT ( 'NONE', #27 ) ;
#8 = CIRCLE ( 'NONE', #184, 14.25000000000003908 ) ;
#9 = FACE_OUTER_BOUND ( 'NONE', #137, .T. ) ;
#10 = DIRECTION ( 'NONE',  ( -0.000000000000000000, 1.000000000000000000, -0.000000000000000000 ) ) ;
#11 = PLANE ( 'NONE',  #24 ) ;
#12 = CONICAL_SURFACE ( 'NONE', #258, 14.25000000000003908, 0.8726646259971659880 ) ;
#13 = CARTESIAN_POINT ( 'NONE',  ( 0.000000000000000000, 0.000000000000000000, 0.000000000000000000 ) ) ;
#14 = DIRECTION ( 'NONE',  ( -0.000000000000000000, 1.000000000000000000, -0.000000000000000000 ) ) ;
#15 = CC_DESIGN_APPROVAL ( #171, ( #47 ) ) ;
#16 = SECURITY_CLASSIFICATION ( '', '', #266 ) ;
#17 = APPROVAL_DATE_TIME ( #238, #171 ) ;
#18 = VERTEX_POINT ( 'NONE', #149 ) ;
#19 = EDGE_LOOP ( 'NONE', ( #292, #49, #196, #219, #44 ) ) ;
#20 = DIRECTION ( 'NONE',  ( 0.3746888400378638462, 0.000000000000000000, 0.9271506205310333648 ) ) ;
#21 = LINE ( 'NONE', #121, #104 ) ;
#22 = VERTEX_POINT ( 'NONE', #299 ) ;
#23 = CONICAL_SURFACE ( 'NONE', #50, 14.25000000000003908, 0.8726646259971659880 ) ;
#24 = AXIS2_PLACEMENT_3D ( 'NONE', #105, #85, #31 ) ;
#25 = DIRECTION ( 'NONE',  ( -4.314083075427408311E-32, 1.000000000000000000, 1.232595164407830946E-32 ) ) ;
#26 = DIRECTION ( 'NONE',  ( 1.000000000000000000, 0.000000000000000000, -1.224646799147353207E-16 ) ) ;
#27 = CARTESIAN_POINT ( 'NONE',  ( 6.735557395310458786E-16, 0.000000000000000000, -5.000000000000018652 ) ) ;
#28 = ADVANCED_FACE ( 'NONE', ( #103 ), #273, .T. ) ;
#29 = DIRECTION ( 'NONE',  ( 1.000000000000000000, 0.000000000000000000, 2.130129210255981758E-33 ) ) ;
#30 = APPROVAL_PERSON_ORGANIZATION ( #118, #171, #43 ) ;
#31 = DIRECTION ( 'NONE',  ( 0.000000000000000000, 0.000000000000000000, 1.000000000000000000 ) ) ;
#32 = DIRECTION ( 'NONE',  ( 4.314083075427408311E-32, -1.000000000000000000, -1.232595164407830946E-32 ) ) ;
#33 = DIRECTION ( 'NONE',  ( 0.000000000000000000, -1.000000000000000000, 0.000000000000000000 ) ) ;
#34 = DIRECTION ( 'NONE',  ( -0.000000000000000000, 1.000000000000000000, -0.000000000000000000 ) ) ;
#35 = ADVANCED_FACE ( 'NONE', ( #228 ), #23, .T. ) ;
#36 = CARTESIAN_POINT ( 'NONE',  ( 4.429638872090642462E-30, 65.00000000000000000, 9.629649721936179265E-30 ) ) ;
#37 = ORIENTED_EDGE ( 'NONE', *, *, #145, .T. ) ;
#38 = AXIS2_PLACEMENT_3D ( 'NONE', #229, #135, #181 ) ;
#39 = DIRECTION ( 'NONE',  ( 0.000000000000000000, 0.000000000000000000, 1.000000000000000000 ) ) ;
#40 = ORIENTED_EDGE ( 'NONE', *, *, #186, .F. ) ;
#41 = PERSON_AND_ORGANIZATION ( #112, #169 ) ;
#42 = EDGE_CURVE ( 'NONE', #70, #7, #208, .T. ) ;
#43 = APPROVAL_ROLE ( '' ) ;
#44 = ORIENTED_EDGE ( 'NONE', *, *, #222, .T. ) ;
#45 = CC_DESIGN_APPROVAL ( #1, ( #16 ) ) ;
#46 = DIRECTION ( 'NONE',  ( 9.381338752702749270E-17, 0.6427876096865374755, -0.7660444431189796788 ) ) ;
#47 = PRODUCT_DEFINITION ( 'UNKNOWN', '', #192, #256 ) ;
#48 = ORIENTED_EDGE ( 'NONE', *, *, #63, .F. ) ;
#49 = ORIENTED_EDGE ( 'NONE', *, *, #296, .F. ) ;
#50 = AXIS2_PLACEMENT_3D ( 'NONE', #101, #25, #274 ) ;
#51 = APPROVAL_ROLE ( '' ) ;
#52 = ORIENTED_EDGE ( 'NONE', *, *, #145, .F. ) ;
#53 = PERSON_AND_ORGANIZATION ( #112, #169 ) ;
#54 = VERTEX_POINT ( 'NONE', #4 ) ;
#55 = EDGE_CURVE ( 'NONE', #54, #173, #270, .T. ) ;
#56 = FACE_OUTER_BOUND ( 'NONE', #268, .T. ) ;
#57 = CARTESIAN_POINT ( 'NONE',  ( 7.347880794884127625E-16, 90.55239100215572989, -6.000000000000007105 ) ) ;
#58 = CONICAL_SURFACE ( 'NONE', #2, 6.000000000000007105, 0.5235987755982919323 ) ;
#59 = CC_DESIGN_PERSON_AND_ORGANIZATION_ASSIGNMENT ( #314, #190, ( #192 ) ) ;
#60 = DIRECTION ( 'NONE',  ( -2.130129210255933520E-33, 0.000000000000000000, -1.000000000000000000 ) ) ;
#61 = CARTESIAN_POINT ( 'NONE',  ( 0.000000000000000000, 90.55239100215572989, 6.000000000000007105 ) ) ;
#62 = DIRECTION ( 'NONE',  ( 0.000000000000000000, 0.000000000000000000, 1.000000000000000000 ) ) ;
#63 = EDGE_CURVE ( 'NONE', #123, #73, #252, .T. ) ;
#64 = DIRECTION ( 'NONE',  ( -4.314083075427408311E-32, 1.000000000000000000, 1.232595164407830946E-32 ) ) ;
#65 = CALENDAR_DATE ( 2024, 15, 4 ) ;
#66 = ORIENTED_EDGE ( 'NONE', *, *, #6, .T. ) ;
#67 = VECTOR ( 'NONE', #84, 1000.000000000000114 ) ;
#68 = LOCAL_TIME ( 13, 54, 21.00000000000000000, #313 ) ;
#69 = PERSON_AND_ORGANIZATION ( #112, #169 ) ;
#70 = VERTEX_POINT ( 'NONE', #245 ) ;
#71 = PERSON_AND_ORGANIZATION ( #112, #169 ) ;
#72 = ORIENTED_EDGE ( 'NONE', *, *, #261, .F. ) ;
#73 = VERTEX_POINT ( 'NONE', #227 ) ;
#74 = EDGE_CURVE ( 'NONE', #70, #18, #21, .T. ) ;
#75 =( GEOMETRIC_REPRESENTATION_CONTEXT ( 3 ) GLOBAL_UNCERTAINTY_ASSIGNED_CONTEXT ( ( #231 ) ) GLOBAL_UNIT_ASSIGNED_CONTEXT ( ( #267, #115, #116 ) ) REPRESENTATION_CONTEXT ( 'NONE', 'WORKASPACE' ) );
#76 = DATE_TIME_ROLE ( 'classification_date' ) ;
#77 = CARTESIAN_POINT ( 'NONE',  ( 4.429638872090642462E-30, 65.00000000000000000, 9.629649721936179265E-30 ) ) ;
#78 = CC_DESIGN_PERSON_AND_ORGANIZATION_ASSIGNMENT ( #69, #166, ( #192 ) ) ;
#79 = EDGE_LOOP ( 'NONE', ( #142, #5, #265, #200, #201 ) ) ;
#80 = CARTESIAN_POINT ( 'NONE',  ( 1.745121688784987497E-15, 65.00000000000000000, -14.25000000000003908 ) ) ;
#81 = AXIS2_PLACEMENT_3D ( 'NONE', #183, #305, #203 ) ;
#82 = CALENDAR_DATE ( 2024, 15, 4 ) ;
#83 = ADVANCED_FACE ( 'NONE', ( #197 ), #99, .T. ) ;
#84 = DIRECTION ( 'NONE',  ( 6.123233995736692080E-17, 0.8660254037844421493, -0.4999999999999940048 ) ) ;
#85 = DIRECTION ( 'NONE',  ( -0.000000000000000000, 1.000000000000000000, 0.000000000000000000 ) ) ;
#86 = APPROVAL ( #94, 'UNSPECIFIED' ) ;
#87 = AXIS2_PLACEMENT_3D ( 'NONE', #279, #283, #29 ) ;
#88 = CARTESIAN_POINT ( 'NONE',  ( 7.347880794884127625E-16, 1.732050807568885631, -6.000000000000007105 ) ) ;
#89 = DIRECTION ( 'NONE',  ( -0.000000000000000000, 1.000000000000000000, -0.000000000000000000 ) ) ;
#90 = DATE_TIME_ROLE ( 'creation_date' ) ;
#91 = ADVANCED_FACE ( 'NONE', ( #321 ), #58, .T. ) ;
#92 = PERSON_AND_ORGANIZATION ( #112, #169 ) ;
#93 = ORIENTED_EDGE ( 'NONE', *, *, #129, .T. ) ;
#94 = APPROVAL_STATUS ( 'not_yet_approved' ) ;
#95 = DIRECTION ( 'NONE',  ( 1.000000000000000000, 0.000000000000000000, 0.000000000000000000 ) ) ;
#96 = AXIS2_PLACEMENT_3D ( 'NONE', #288, #14, #310 ) ;
#97 = CARTESIAN_POINT ( 'NONE',  ( 4.429638872090642462E-30, 65.00000000000000000, 9.629649721936179265E-30 ) ) ;
#98 = EDGE_CURVE ( 'NONE', #7, #70, #218, .T. ) ;
#99 = SPHERICAL_SURFACE ( 'NONE', #87, 14.25000000000000000 ) ;
#100 = VECTOR ( 'NONE', #205, 1000.000000000000114 ) ;
#101 = CARTESIAN_POINT ( 'NONE',  ( 4.429638872090642462E-30, 65.00000000000000000, 9.629649721936179265E-30 ) ) ;
#102 = DIRECTION ( 'NONE',  ( 4.314083075427408311E-32, -1.000000000000000000, -1.232595164407830946E-32 ) ) ;
#103 = FACE_OUTER_BOUND ( 'NONE', #153, .T. ) ;
#104 = VECTOR ( 'NONE', #221, 1000.000000000000114 ) ;
#105 = CARTESIAN_POINT ( 'NONE',  ( 6.000000000000011546, 0.000000000000000000, 0.000000000000000000 ) ) ;
#106 = DIRECTION ( 'NONE',  ( -2.130129210255933520E-33, 0.000000000000000000, -1.000000000000000000 ) ) ;
#107 = FACE_OUTER_BOUND ( 'NONE', #318, .T. ) ;
#108 = CC_DESIGN_DATE_AND_TIME_ASSIGNMENT ( #125, #76, ( #16 ) ) ;
#109 = CIRCLE ( 'NONE', #306, 14.25000000000003908 ) ;
#110 = CARTESIAN_POINT ( 'NONE',  ( -14.25000000000001954, 65.00000000000000000, 1.745121688784990258E-15 ) ) ;
#111 = LOCAL_TIME ( 13, 54, 21.00000000000000000, #243 ) ;
#112 = PERSON ( 'UNSPECIFIED', 'UNSPECIFIED', 'UNSPECIFIED', ('UNSPECIFIED'), ('UNSPECIFIED'), ('UNSPECIFIED') ) ;
#113 = CARTESIAN_POINT ( 'NONE',  ( 1.745121688784987497E-15, 65.00000000000000000, -14.25000000000003908 ) ) ;
#114 = EDGE_CURVE ( 'NONE', #189, #73, #235, .T. ) ;
#115 =( NAMED_UNIT ( * ) PLANE_ANGLE_UNIT ( ) SI_UNIT ( $, .RADIAN. ) );
#116 =( NAMED_UNIT ( * ) SI_UNIT ( $, .STERADIAN. ) SOLID_ANGLE_UNIT ( ) );
#117 = DATE_AND_TIME ( #262, #209 ) ;
#118 = PERSON_AND_ORGANIZATION ( #112, #169 ) ;
#119 = AXIS2_PLACEMENT_3D ( 'NONE', #158, #304, #155 ) ;
#120 = APPROVAL_DATE_TIME ( #220, #1 ) ;
#121 = CARTESIAN_POINT ( 'NONE',  ( 0.000000000000000000, 1.732050807568885631, 6.000000000000007105 ) ) ;
#122 = COORDINATED_UNIVERSAL_TIME_OFFSET ( 0, 0, .AHEAD. ) ;
#123 = VERTEX_POINT ( 'NONE', #131 ) ;
#124 = CARTESIAN_POINT ( 'NONE',  ( 0.000000000000000000, 0.000000000000000000, 0.000000000000000000 ) ) ;
#125 = DATE_AND_TIME ( #82, #111 ) ;
#126 = ORIENTED_EDGE ( 'NONE', *, *, #154, .F. ) ;
#127 = DIRECTION ( 'NONE',  ( 1.000000000000000000, 0.000000000000000000, 2.130129210255981758E-33 ) ) ;
#128 = CIRCLE ( 'NONE', #264, 6.000000000000020428 ) ;
#129 = EDGE_CURVE ( 'NONE', #18, #189, #254, .T. ) ;
#130 = LINE ( 'NONE', #88, #67 ) ;
#131 = CARTESIAN_POINT ( 'NONE',  ( 14.25000000000003908, 65.00000000000000000, 9.660004063182325805E-30 ) ) ;
#132 = DIRECTION ( 'NONE',  ( 0.000000000000000000, 0.000000000000000000, 1.000000000000000000 ) ) ;
#133 = CLOSED_SHELL ( 'NONE', ( #35, #28, #91, #207, #312, #83, #194, #241, #204 ) ) ;
#134 = CC_DESIGN_PERSON_AND_ORGANIZATION_ASSIGNMENT ( #92, #242, ( #284 ) ) ;
#135 = DIRECTION ( 'NONE',  ( 2.130129210255953362E-33, 1.232595164407830946E-32, -1.000000000000000000 ) ) ;
#136 = FACE_OUTER_BOUND ( 'NONE', #19, .T. ) ;
#137 = EDGE_LOOP ( 'NONE', ( #37, #3, #187, #263 ) ) ;
#138 = APPROVAL_STATUS ( 'not_yet_approved' ) ;
#139 = CC_DESIGN_DATE_AND_TIME_ASSIGNMENT ( #293, #90, ( #47 ) ) ;
#140 = ORIENTED_EDGE ( 'NONE', *, *, #213, .F. ) ;
#141 = AXIS2_PLACEMENT_3D ( 'NONE', #223, #249, #26 ) ;
#142 = ORIENTED_EDGE ( 'NONE', *, *, #253, .F. ) ;
#143 = PERSON_AND_ORGANIZATION_ROLE ( 'creator' ) ;
#144 = VECTOR ( 'NONE', #46, 1000.000000000000114 ) ;
#145 = EDGE_CURVE ( 'NONE', #18, #22, #191, .T. ) ;
#146 = DIRECTION ( 'NONE',  ( -2.130129210255933520E-33, 0.000000000000000000, -1.000000000000000000 ) ) ;
#147 = PERSON_AND_ORGANIZATION_ROLE ( 'classification_officer' ) ;
#148 = ORIENTED_EDGE ( 'NONE', *, *, #154, .T. ) ;
#149 = CARTESIAN_POINT ( 'NONE',  ( 0.000000000000000000, 1.732050807568885631, 6.000000000000007105 ) ) ;
#150 = AXIS2_PLACEMENT_3D ( 'NONE', #309, #34, #277 ) ;
#151 = ORIENTED_EDGE ( 'NONE', *, *, #74, .F. ) ;
#152 = PRODUCT_RELATED_PRODUCT_CATEGORY ( 'detail', '', ( #284 ) ) ;
#153 = EDGE_LOOP ( 'NONE', ( #140, #66, #72, #48 ) ) ;
#154 = EDGE_CURVE ( 'NONE', #7, #22, #130, .T. ) ;
#155 = DIRECTION ( 'NONE',  ( 0.000000000000000000, 0.000000000000000000, 1.000000000000000000 ) ) ;
#156 = APPROVAL_PERSON_ORGANIZATION ( #71, #86, #286 ) ;
#157 = FACE_OUTER_BOUND ( 'NONE', #164, .T. ) ;
#158 = CARTESIAN_POINT ( 'NONE',  ( 0.000000000000000000, 1.732050807568885631, 0.000000000000000000 ) ) ;
#159 = DIRECTION ( 'NONE',  ( 4.314083075427408311E-32, -1.000000000000000000, -1.232595164407830946E-32 ) ) ;
#160 = VECTOR ( 'NONE', #182, 1000.000000000000000 ) ;
#161 = DIRECTION ( 'NONE',  ( 0.000000000000000000, 0.000000000000000000, 1.000000000000000000 ) ) ;
#162 = MECHANICAL_CONTEXT ( 'NONE', #260, 'mechanical' ) ;
#163 = DIRECTION ( 'NONE',  ( 2.130129210255933520E-33, 0.000000000000000000, 1.000000000000000000 ) ) ;
#164 = EDGE_LOOP ( 'NONE', ( #250, #195 ) ) ;
#165 = AXIS2_PLACEMENT_3D ( 'NONE', #77, #295, #127 ) ;
#166 = PERSON_AND_ORGANIZATION_ROLE ( 'design_supplier' ) ;
#167 = ORIENTED_EDGE ( 'NONE', *, *, #42, .F. ) ;
#168 = ORIENTED_EDGE ( 'NONE', *, *, #300, .F. ) ;
#169 = ORGANIZATION ( 'UNSPECIFIED', 'UNSPECIFIED', '' ) ;
#170 = ORIENTED_EDGE ( 'NONE', *, *, #213, .T. ) ;
#171 = APPROVAL ( #138, 'UNSPECIFIED' ) ;
#172 = ORIENTED_EDGE ( 'NONE', *, *, #308, .F. ) ;
#173 = VERTEX_POINT ( 'NONE', #113 ) ;
#174 = AXIS2_PLACEMENT_3D ( 'NONE', #302, #102, #146 ) ;
#175 = APPROVAL_PERSON_ORGANIZATION ( #53, #1, #51 ) ;
#176 = CALENDAR_DATE ( 2024, 15, 4 ) ;
#177 = ORIENTED_EDGE ( 'NONE', *, *, #296, .T. ) ;
#178 = CYLINDRICAL_SURFACE ( 'NONE', #248, 6.000000000000007105 ) ;
#179 = CARTESIAN_POINT ( 'NONE',  ( 4.459993213336789703E-30, 65.00000000000000000, 14.25000000000003908 ) ) ;
#180 = CONICAL_SURFACE ( 'NONE', #119, 6.000000000000007105, 0.5235987755982919323 ) ;
#181 = DIRECTION ( 'NONE',  ( 0.000000000000000000, 1.000000000000000000, 1.232595164407829851E-32 ) ) ;
#182 = DIRECTION ( 'NONE',  ( -0.000000000000000000, 1.000000000000000000, -0.000000000000000000 ) ) ;
#183 = CARTESIAN_POINT ( 'NONE',  ( 0.000000000000000000, 1.732050807568885631, 0.000000000000000000 ) ) ;
#184 = AXIS2_PLACEMENT_3D ( 'NONE', #36, #236, #215 ) ;
#185 = PERSON_AND_ORGANIZATION ( #112, #169 ) ;
#186 = EDGE_CURVE ( 'NONE', #22, #54, #307, .T. ) ;
#187 = ORIENTED_EDGE ( 'NONE', *, *, #253, .T. ) ;
#188 = CARTESIAN_POINT ( 'NONE',  ( 0.000000000000000000, 0.000000000000000000, 0.000000000000000000 ) ) ;
#189 = VERTEX_POINT ( 'NONE', #212 ) ;
#190 = PERSON_AND_ORGANIZATION_ROLE ( 'creator' ) ;
#191 = CIRCLE ( 'NONE', #81, 6.000000000000007105 ) ;
#192 = PRODUCT_DEFINITION_FORMATION_WITH_SPECIFIED_SOURCE ( 'ANY', '', #284, .NOT_KNOWN. ) ;
#193 = APPLICATION_PROTOCOL_DEFINITION ( 'international standard', 'config_control_design', 1994, #276 ) ;
#194 = ADVANCED_FACE ( 'NONE', ( #157 ), #11, .F. ) ;
#195 = ORIENTED_EDGE ( 'NONE', *, *, #98, .T. ) ;
#196 = ORIENTED_EDGE ( 'NONE', *, *, #114, .T. ) ;
#197 = FACE_OUTER_BOUND ( 'NONE', #289, .T. ) ;
#198 = CIRCLE ( 'NONE', #233, 14.25000000000003908 ) ;
#199 = CC_DESIGN_PERSON_AND_ORGANIZATION_ASSIGNMENT ( #185, #143, ( #47 ) ) ;
#200 = ORIENTED_EDGE ( 'NONE', *, *, #63, .T. ) ;
#201 = ORIENTED_EDGE ( 'NONE', *, *, #114, .F. ) ;
#202 = DIRECTION ( 'NONE',  ( 0.000000000000000000, 0.000000000000000000, 1.000000000000000000 ) ) ;
#203 = DIRECTION ( 'NONE',  ( 0.000000000000000000, 0.000000000000000000, 1.000000000000000000 ) ) ;
#204 = ADVANCED_FACE ( 'NONE', ( #107 ), #178, .T. ) ;
#205 = DIRECTION ( 'NONE',  ( -2.609861783578931099E-32, 0.6427876096865374755, 0.7660444431189796788 ) ) ;
#206 = DIRECTION ( 'NONE',  ( 4.314083075427408311E-32, -1.000000000000000000, -1.232595164407830946E-32 ) ) ;
#207 = ADVANCED_FACE ( 'NONE', ( #9 ), #259, .T. ) ;
#208 = CIRCLE ( 'NONE', #315, 5.000000000000018652 ) ;
#209 = LOCAL_TIME ( 13, 54, 21.00000000000000000, #239 ) ;
#210 = CARTESIAN_POINT ( 'NONE',  ( 4.814824860968089633E-30, 58.07742804278746007, 8.859277744181284924E-30 ) ) ;
#211 = PRODUCT_DEFINITION_SHAPE ( 'NONE', 'NONE',  #47 ) ;
#212 = CARTESIAN_POINT ( 'NONE',  ( 1.368455531567204171E-45, 58.07742804278746007, 6.000000000000005329 ) ) ;
#213 = EDGE_CURVE ( 'NONE', #247, #123, #214, .T. ) ;
#214 = CIRCLE ( 'NONE', #38, 14.24999999999999822 ) ;
#215 = DIRECTION ( 'NONE',  ( -2.130129210255933520E-33, 0.000000000000000000, -1.000000000000000000 ) ) ;
#216 = APPROVAL_DATE_TIME ( #117, #86 ) ;
#217 = CALENDAR_DATE ( 2024, 15, 4 ) ;
#218 = CIRCLE ( 'NONE', #237, 5.000000000000018652 ) ;
#219 = ORIENTED_EDGE ( 'NONE', *, *, #261, .T. ) ;
#220 = DATE_AND_TIME ( #176, #225 ) ;
#221 = DIRECTION ( 'NONE',  ( 0.000000000000000000, 0.8660254037844421493, 0.4999999999999940048 ) ) ;
#222 = EDGE_CURVE ( 'NONE', #275, #173, #109, .T. ) ;
#223 = CARTESIAN_POINT ( 'NONE',  ( 4.429638872090642462E-30, 65.00000000000000000, 9.629649721936179265E-30 ) ) ;
#224 = CIRCLE ( 'NONE', #141, 14.25000000000000000 ) ;
#225 = LOCAL_TIME ( 13, 54, 21.00000000000000000, #122 ) ;
#226 = DIRECTION ( 'NONE',  ( 0.000000000000000000, -1.000000000000000000, 0.000000000000000000 ) ) ;
#227 = CARTESIAN_POINT ( 'NONE',  ( 4.459993213336789703E-30, 65.00000000000000000, 14.25000000000003908 ) ) ;
#228 = FACE_OUTER_BOUND ( 'NONE', #79, .T. ) ;
#229 = CARTESIAN_POINT ( 'NONE',  ( 4.429638872090642462E-30, 65.00000000000000000, 9.629649721936179265E-30 ) ) ;
#230 = CARTESIAN_POINT ( 'NONE',  ( 0.000000000000000000, 90.55239100215572989, 0.000000000000000000 ) ) ;
#231 = UNCERTAINTY_MEASURE_WITH_UNIT (LENGTH_MEASURE( 1.000000000000000082E-05 ), #267, 'distance_accuracy_value', 'NONE');
#232 = DIRECTION ( 'NONE',  ( 0.3746888400378638462, 0.000000000000000000, 0.9271506205310333648 ) ) ;
#233 = AXIS2_PLACEMENT_3D ( 'NONE', #251, #159, #106 ) ;
#234 = CARTESIAN_POINT ( 'NONE',  ( 0.000000000000000000, 1.732050807568885631, 0.000000000000000000 ) ) ;
#235 = LINE ( 'NONE', #179, #100 ) ;
#236 = DIRECTION ( 'NONE',  ( 4.314083075427408311E-32, -1.000000000000000000, -1.232595164407830946E-32 ) ) ;
#237 = AXIS2_PLACEMENT_3D ( 'NONE', #13, #33, #132 ) ;
#238 = DATE_AND_TIME ( #65, #297 ) ;
#239 = COORDINATED_UNIVERSAL_TIME_OFFSET ( 0, 0, .AHEAD. ) ;
#240 = ORIENTED_EDGE ( 'NONE', *, *, #300, .T. ) ;
#241 = ADVANCED_FACE ( 'NONE', ( #56 ), #180, .T. ) ;
#242 = PERSON_AND_ORGANIZATION_ROLE ( 'design_owner' ) ;
#243 = COORDINATED_UNIVERSAL_TIME_OFFSET ( 0, 0, .AHEAD. ) ;
#244 = CIRCLE ( 'NONE', #290, 6.000000000000020428 ) ;
#245 = CARTESIAN_POINT ( 'NONE',  ( 0.000000000000000000, 0.000000000000000000, 5.000000000000018652 ) ) ;
#246 = CC_DESIGN_PERSON_AND_ORGANIZATION_ASSIGNMENT ( #41, #147, ( #16 ) ) ;
#247 = VERTEX_POINT ( 'NONE', #255 ) ;
#248 = AXIS2_PLACEMENT_3D ( 'NONE', #230, #10, #161 ) ;
#249 = DIRECTION ( 'NONE',  ( 1.224646799147353207E-16, -1.232595164407830399E-32, 1.000000000000000000 ) ) ;
#250 = ORIENTED_EDGE ( 'NONE', *, *, #42, .T. ) ;
#251 = CARTESIAN_POINT ( 'NONE',  ( 4.429638872090642462E-30, 65.00000000000000000, 9.629649721936179265E-30 ) ) ;
#252 = CIRCLE ( 'NONE', #174, 14.25000000000003908 ) ;
#253 = EDGE_CURVE ( 'NONE', #54, #189, #244, .T. ) ;
#254 = LINE ( 'NONE', #61, #160 ) ;
#255 = CARTESIAN_POINT ( 'NONE',  ( 8.725608443924951290E-16, 79.25000000000000000, 9.805294532864295175E-30 ) ) ;
#256 = DESIGN_CONTEXT ( 'detailed design', #276, 'design' ) ;
#257 = CARTESIAN_POINT ( 'NONE',  ( 4.814824860968089633E-30, 58.07742804278746007, 8.859277744181284924E-30 ) ) ;
#258 = AXIS2_PLACEMENT_3D ( 'NONE', #97, #64, #163 ) ;
#259 = CYLINDRICAL_SURFACE ( 'NONE', #150, 6.000000000000007105 ) ;
#260 = APPLICATION_CONTEXT ( 'configuration controlled 3d designs of mechanical parts and assemblies' ) ;
#261 = EDGE_CURVE ( 'NONE', #73, #275, #198, .T. ) ;
#262 = CALENDAR_DATE ( 2024, 15, 4 ) ;
#263 = ORIENTED_EDGE ( 'NONE', *, *, #129, .F. ) ;
#264 = AXIS2_PLACEMENT_3D ( 'NONE', #210, #287, #20 ) ;
#265 = ORIENTED_EDGE ( 'NONE', *, *, #308, .T. ) ;
#266 = SECURITY_CLASSIFICATION_LEVEL ( 'unclassified' ) ;
#267 =( LENGTH_UNIT ( ) NAMED_UNIT ( * ) SI_UNIT ( .MILLI., .METRE. ) );
#268 = EDGE_LOOP ( 'NONE', ( #126, #167, #319, #168 ) ) ;
#269 = SHAPE_DEFINITION_REPRESENTATION ( #211, #278 ) ;
#270 = LINE ( 'NONE', #80, #144 ) ;
#271 = ORIENTED_EDGE ( 'NONE', *, *, #222, .F. ) ;
#272 = MANIFOLD_SOLID_BREP ( '-1', #133 ) ;
#273 = SPHERICAL_SURFACE ( 'NONE', #165, 14.25000000000000000 ) ;
#274 = DIRECTION ( 'NONE',  ( 2.130129210255933520E-33, 0.000000000000000000, 1.000000000000000000 ) ) ;
#275 = VERTEX_POINT ( 'NONE', #110 ) ;
#276 = APPLICATION_CONTEXT ( 'configuration controlled 3d designs of mechanical parts and assemblies' ) ;
#277 = DIRECTION ( 'NONE',  ( 0.000000000000000000, 0.000000000000000000, 1.000000000000000000 ) ) ;
#278 = ADVANCED_BREP_SHAPE_REPRESENTATION ( 'RT15_S12', ( #272, #311 ), #75 ) ;
#279 = CARTESIAN_POINT ( 'NONE',  ( 4.429638872090642462E-30, 65.00000000000000000, 9.629649721936179265E-30 ) ) ;
#280 = VECTOR ( 'NONE', #89, 1000.000000000000000 ) ;
#281 = CC_DESIGN_APPROVAL ( #86, ( #192 ) ) ;
#282 = CARTESIAN_POINT ( 'NONE',  ( 4.429638872090642462E-30, 65.00000000000000000, 9.629649721936179265E-30 ) ) ;
#283 = DIRECTION ( 'NONE',  ( -2.130129210255981758E-33, -1.232595164407830946E-32, 1.000000000000000000 ) ) ;
#284 = PRODUCT ( 'RT15_S12', 'RT15_S12', '', ( #162 ) ) ;
#285 = CIRCLE ( 'NONE', #96, 6.000000000000007105 ) ;
#286 = APPROVAL_ROLE ( '' ) ;
#287 = DIRECTION ( 'NONE',  ( 4.314083075427408311E-32, -1.000000000000000000, -1.232595164407830946E-32 ) ) ;
#288 = CARTESIAN_POINT ( 'NONE',  ( 0.000000000000000000, 1.732050807568885631, 0.000000000000000000 ) ) ;
#289 = EDGE_LOOP ( 'NONE', ( #294, #170, #172, #271 ) ) ;
#290 = AXIS2_PLACEMENT_3D ( 'NONE', #257, #32, #232 ) ;
#291 = APPLICATION_PROTOCOL_DEFINITION ( 'international standard', 'config_control_design', 1994, #260 ) ;
#292 = ORIENTED_EDGE ( 'NONE', *, *, #55, .F. ) ;
#293 = DATE_AND_TIME ( #217, #68 ) ;
#294 = ORIENTED_EDGE ( 'NONE', *, *, #6, .F. ) ;
#295 = DIRECTION ( 'NONE',  ( -2.130129210255981758E-33, -1.232595164407830946E-32, 1.000000000000000000 ) ) ;
#296 = EDGE_CURVE ( 'NONE', #189, #54, #128, .T. ) ;
#297 = LOCAL_TIME ( 13, 54, 21.00000000000000000, #317 ) ;
#298 = EDGE_LOOP ( 'NONE', ( #301, #148, #52, #151 ) ) ;
#299 = CARTESIAN_POINT ( 'NONE',  ( 7.347880794884127625E-16, 1.732050807568885631, -6.000000000000007105 ) ) ;
#300 = EDGE_CURVE ( 'NONE', #22, #18, #285, .T. ) ;
#301 = ORIENTED_EDGE ( 'NONE', *, *, #98, .F. ) ;
#302 = CARTESIAN_POINT ( 'NONE',  ( 4.429638872090642462E-30, 65.00000000000000000, 9.629649721936179265E-30 ) ) ;
#303 = DIRECTION ( 'NONE',  ( -0.000000000000000000, 1.000000000000000000, -0.000000000000000000 ) ) ;
#304 = DIRECTION ( 'NONE',  ( -0.000000000000000000, 1.000000000000000000, -0.000000000000000000 ) ) ;
#305 = DIRECTION ( 'NONE',  ( -0.000000000000000000, 1.000000000000000000, -0.000000000000000000 ) ) ;
#306 = AXIS2_PLACEMENT_3D ( 'NONE', #282, #206, #60 ) ;
#307 = LINE ( 'NONE', #57, #280 ) ;
#308 = EDGE_CURVE ( 'NONE', #173, #123, #8, .T. ) ;
#309 = CARTESIAN_POINT ( 'NONE',  ( 0.000000000000000000, 90.55239100215572989, 0.000000000000000000 ) ) ;
#310 = DIRECTION ( 'NONE',  ( 0.000000000000000000, 0.000000000000000000, 1.000000000000000000 ) ) ;
#311 = AXIS2_PLACEMENT_3D ( 'NONE', #188, #39, #95 ) ;
#312 = ADVANCED_FACE ( 'NONE', ( #136 ), #12, .T. ) ;
#313 = COORDINATED_UNIVERSAL_TIME_OFFSET ( 0, 0, .AHEAD. ) ;
#314 = PERSON_AND_ORGANIZATION ( #112, #169 ) ;
#315 = AXIS2_PLACEMENT_3D ( 'NONE', #124, #226, #202 ) ;
#316 = CC_DESIGN_SECURITY_CLASSIFICATION ( #16, ( #192 ) ) ;
#317 = COORDINATED_UNIVERSAL_TIME_OFFSET ( 0, 0, .AHEAD. ) ;
#318 = EDGE_LOOP ( 'NONE', ( #40, #240, #93, #177 ) ) ;
#319 = ORIENTED_EDGE ( 'NONE', *, *, #74, .T. ) ;
#320 = APPROVAL_STATUS ( 'not_yet_approved' ) ;
#321 = FACE_OUTER_BOUND ( 'NONE', #298, .T. ) ;
ENDSEC;
END-ISO-10303-21;
