ISO-10303-21;
HEADER;
FILE_DESCRIPTION (( 'STEP AP203' ),
    '1' );
FILE_NAME ('RT10_S12.STEP',
    '2024-04-15T12:46:11',
    ( '' ),
    ( '' ),
    'SwSTEP 2.0',
    'SolidWorks 2023',
    '' );
FILE_SCHEMA (( 'CONFIG_CONTROL_DESIGN' ));
ENDSEC;

DATA;
#1 = EDGE_CURVE ( 'NONE', #149, #369, #274, .T. ) ;
#2 = CIRCLE ( 'NONE', #299, 5.000000000000004441 ) ;
#3 = ORIENTED_EDGE ( 'NONE', *, *, #308, .T. ) ;
#4 = CC_DESIGN_DATE_AND_TIME_ASSIGNMENT ( #125, #102, ( #347 ) ) ;
#5 = APPROVAL_ROLE ( '' ) ;
#6 = DIRECTION ( 'NONE',  ( 0.000000000000000000, 1.000000000000000000, 2.220446049250313574E-16 ) ) ;
#7 = DIRECTION ( 'NONE',  ( 0.000000000000000000, 0.000000000000000000, -1.000000000000000000 ) ) ;
#8 = DATE_AND_TIME ( #310, #92 ) ;
#9 = EDGE_CURVE ( 'NONE', #399, #268, #279, .T. ) ;
#10 = CYLINDRICAL_SURFACE ( 'NONE', #234, 6.000000000000003553 ) ;
#11 = ORGANIZATION ( 'UNSPECIFIED', 'UNSPECIFIED', '' ) ;
#12 = VECTOR ( 'NONE', #103, 1000.000000000000000 ) ;
#13 = PERSON_AND_ORGANIZATION ( #135, #11 ) ;
#14 = ORIENTED_EDGE ( 'NONE', *, *, #56, .F. ) ;
#15 = CARTESIAN_POINT ( 'NONE',  ( 0.000000000000000000, 54.88907857498945475, 0.000000000000000000 ) ) ;
#16 = DIRECTION ( 'NONE',  ( -0.000000000000000000, -1.000000000000000000, -0.000000000000000000 ) ) ;
#17 = DIRECTION ( 'NONE',  ( 2.141807972751055583E-17, -0.9845876424537673977, 0.1748918932578981955 ) ) ;
#18 = EDGE_CURVE ( 'NONE', #369, #27, #44, .T. ) ;
#19 = DIRECTION ( 'NONE',  ( 0.000000000000000000, -1.000000000000000000, -2.220446049250313574E-16 ) ) ;
#20 = DIRECTION ( 'NONE',  ( -9.278284852043555027E-33, 0.000000000000000000, -1.000000000000000000 ) ) ;
#21 = AXIS2_PLACEMENT_3D ( 'NONE', #111, #19, #45 ) ;
#22 = CARTESIAN_POINT ( 'NONE',  ( 0.000000000000000000, 0.000000000000000000, 5.000000000000004441 ) ) ;
#23 = COORDINATED_UNIVERSAL_TIME_OFFSET ( 0, 0, .AHEAD. ) ;
#24 = EDGE_LOOP ( 'NONE', ( #185, #366, #126, #206 ) ) ;
#25 = EDGE_CURVE ( 'NONE', #27, #87, #108, .T. ) ;
#26 = CARTESIAN_POINT ( 'NONE',  ( 0.000000000000000000, 0.000000000000000000, 0.000000000000000000 ) ) ;
#27 = VERTEX_POINT ( 'NONE', #276 ) ;
#28 = CIRCLE ( 'NONE', #132, 6.000000000000003553 ) ;
#29 = CIRCLE ( 'NONE', #80, 2.999999999999998668 ) ;
#30 = ORIENTED_EDGE ( 'NONE', *, *, #321, .F. ) ;
#31 = DIRECTION ( 'NONE',  ( -0.000000000000000000, -1.000000000000000000, -0.000000000000000000 ) ) ;
#32 = ADVANCED_FACE ( 'NONE', ( #98 ), #67, .T. ) ;
#33 = ORIENTED_EDGE ( 'NONE', *, *, #249, .T. ) ;
#34 = APPROVAL_STATUS ( 'not_yet_approved' ) ;
#35 = EDGE_LOOP ( 'NONE', ( #14, #178, #213 ) ) ;
#36 = PERSON_AND_ORGANIZATION ( #135, #11 ) ;
#37 = CARTESIAN_POINT ( 'NONE',  ( 6.735557395310446954E-16, 0.000000000000000000, -5.000000000000004441 ) ) ;
#38 = CONICAL_SURFACE ( 'NONE', #307, 9.250000000000007105, 0.6981317007977259070 ) ;
#39 = FACE_OUTER_BOUND ( 'NONE', #91, .T. ) ;
#40 = DATE_AND_TIME ( #130, #376 ) ;
#41 = ORIENTED_EDGE ( 'NONE', *, *, #355, .F. ) ;
#42 = PERSON_AND_ORGANIZATION_ROLE ( 'classification_officer' ) ;
#43 = ORIENTED_EDGE ( 'NONE', *, *, #9, .T. ) ;
#44 = LINE ( 'NONE', #281, #158 ) ;
#45 = DIRECTION ( 'NONE',  ( -9.278284852043555027E-33, 0.000000000000000000, -1.000000000000000000 ) ) ;
#46 = DIRECTION ( 'NONE',  ( 0.000000000000000000, 0.000000000000000000, -1.000000000000000000 ) ) ;
#47 = VECTOR ( 'NONE', #302, 1000.000000000000114 ) ;
#48 = CARTESIAN_POINT ( 'NONE',  ( 0.000000000000000000, 70.75000000000001421, 1.235123114895486967E-14 ) ) ;
#49 = ADVANCED_FACE ( 'NONE', ( #39 ), #10, .T. ) ;
#50 = CARTESIAN_POINT ( 'NONE',  ( 0.000000000000000000, 70.75000000000001421, 1.235123114895486967E-14 ) ) ;
#51 = FACE_OUTER_BOUND ( 'NONE', #348, .T. ) ;
#52 = CIRCLE ( 'NONE', #200, 6.000000000000006217 ) ;
#53 = PRODUCT_DEFINITION_FORMATION_WITH_SPECIFIED_SOURCE ( 'ANY', '', #353, .NOT_KNOWN. ) ;
#54 = CARTESIAN_POINT ( 'NONE',  ( -7.703719777548943412E-31, 70.75000000000001421, 0.000000000000000000 ) ) ;
#55 = ORIENTED_EDGE ( 'NONE', *, *, #152, .T. ) ;
#56 = EDGE_CURVE ( 'NONE', #58, #129, #284, .T. ) ;
#57 = ORIENTED_EDGE ( 'NONE', *, *, #365, .F. ) ;
#58 = VERTEX_POINT ( 'NONE', #372 ) ;
#59 = CIRCLE ( 'NONE', #21, 9.250000000000007105 ) ;
#60 = EDGE_CURVE ( 'NONE', #369, #149, #358, .T. ) ;
#61 = APPROVAL_DATE_TIME ( #332, #345 ) ;
#62 = VECTOR ( 'NONE', #237, 1000.000000000000000 ) ;
#63 = EDGE_LOOP ( 'NONE', ( #161, #364, #244, #264 ) ) ;
#64 = DIRECTION ( 'NONE',  ( 0.000000000000000000, 0.000000000000000000, 1.000000000000000000 ) ) ;
#65 = ORIENTED_EDGE ( 'NONE', *, *, #25, .T. ) ;
#66 = DIRECTION ( 'NONE',  ( -0.000000000000000000, -1.000000000000000000, -0.000000000000000000 ) ) ;
#67 = SPHERICAL_SURFACE ( 'NONE', #134, 9.249999999999994671 ) ;
#68 = DIRECTION ( 'NONE',  ( 0.000000000000000000, 0.000000000000000000, -1.000000000000000000 ) ) ;
#69 = PRODUCT_DEFINITION_SHAPE ( 'NONE', 'NONE',  #347 ) ;
#70 = PERSON_AND_ORGANIZATION_ROLE ( 'creator' ) ;
#71 = ORIENTED_EDGE ( 'NONE', *, *, #97, .T. ) ;
#72 = ADVANCED_FACE ( 'NONE', ( #223 ), #323, .T. ) ;
#73 = DIRECTION ( 'NONE',  ( 7.871877887341929597E-17, 0.7660444431189820103, -0.6427876096865344779 ) ) ;
#74 = CIRCLE ( 'NONE', #151, 6.000000000000006217 ) ;
#75 = CARTESIAN_POINT ( 'NONE',  ( 0.000000000000000000, 54.88907857498945475, 0.000000000000000000 ) ) ;
#76 = DIRECTION ( 'NONE',  ( 0.000000000000000000, 1.000000000000000000, 2.220446049250313574E-16 ) ) ;
#77 = FACE_OUTER_BOUND ( 'NONE', #339, .T. ) ;
#78 = AXIS2_PLACEMENT_3D ( 'NONE', #229, #289, #356 ) ;
#79 = ADVANCED_FACE ( 'NONE', ( #221 ), #285, .T. ) ;
#80 = AXIS2_PLACEMENT_3D ( 'NONE', #390, #257, #319 ) ;
#81 = CARTESIAN_POINT ( 'NONE',  ( 3.673940397442058389E-16, 54.88907857498945475, 2.999999999999998668 ) ) ;
#82 = CARTESIAN_POINT ( 'NONE',  ( 0.000000000000000000, 1.732050807568871864, 6.000000000000003553 ) ) ;
#83 = DIRECTION ( 'NONE',  ( 0.000000000000000000, 1.000000000000000000, 0.000000000000000000 ) ) ;
#84 = ADVANCED_BREP_SHAPE_REPRESENTATION ( 'RT10_S12', ( #160, #109 ), #159 ) ;
#85 = ORIENTED_EDGE ( 'NONE', *, *, #286, .F. ) ;
#86 = DIRECTION ( 'NONE',  ( 0.000000000000000000, 0.000000000000000000, 1.000000000000000000 ) ) ;
#87 = VERTEX_POINT ( 'NONE', #133 ) ;
#88 = CARTESIAN_POINT ( 'NONE',  ( 8.582413488140295208E-32, 70.75000000000001421, 9.250000000000017764 ) ) ;
#89 = ORIENTED_EDGE ( 'NONE', *, *, #9, .F. ) ;
#90 = PERSON_AND_ORGANIZATION ( #135, #11 ) ;
#91 = EDGE_LOOP ( 'NONE', ( #89, #163, #241, #238 ) ) ;
#92 = LOCAL_TIME ( 13, 46, 11.00000000000000000, #95 ) ;
#93 = DIRECTION ( 'NONE',  ( 9.278284852043555027E-33, 0.000000000000000000, 1.000000000000000000 ) ) ;
#94 = ORIENTED_EDGE ( 'NONE', *, *, #263, .T. ) ;
#95 = COORDINATED_UNIVERSAL_TIME_OFFSET ( 0, 0, .AHEAD. ) ;
#96 = CARTESIAN_POINT ( 'NONE',  ( 0.000000000000000000, -58.73417193456207031, 0.000000000000000000 ) ) ;
#97 = EDGE_CURVE ( 'NONE', #118, #328, #2, .T. ) ;
#98 = FACE_OUTER_BOUND ( 'NONE', #35, .T. ) ;
#99 = AXIS2_PLACEMENT_3D ( 'NONE', #54, #122, #207 ) ;
#100 = PERSON_AND_ORGANIZATION ( #135, #11 ) ;
#101 = CARTESIAN_POINT ( 'NONE',  ( -7.703719777548943412E-31, 63.30154004628609243, 1.069734080123254335E-14 ) ) ;
#102 = DATE_TIME_ROLE ( 'creation_date' ) ;
#103 = DIRECTION ( 'NONE',  ( -0.000000000000000000, -1.000000000000000000, -0.000000000000000000 ) ) ;
#104 = EDGE_CURVE ( 'NONE', #149, #374, #225, .T. ) ;
#105 = CALENDAR_DATE ( 2024, 15, 4 ) ;
#106 = DIRECTION ( 'NONE',  ( 0.000000000000000000, 0.000000000000000000, 1.000000000000000000 ) ) ;
#107 = DIRECTION ( 'NONE',  ( 6.123233995736777129E-17, 0.8660254037844381525, -0.5000000000000008882 ) ) ;
#108 = CIRCLE ( 'NONE', #182, 2.999999999999998668 ) ;
#109 = AXIS2_PLACEMENT_3D ( 'NONE', #26, #155, #363 ) ;
#110 = SPHERICAL_SURFACE ( 'NONE', #226, 9.249999999999994671 ) ;
#111 = CARTESIAN_POINT ( 'NONE',  ( 0.000000000000000000, 70.75000000000001421, 1.235123114895486967E-14 ) ) ;
#112 = DIRECTION ( 'NONE',  ( -0.000000000000000000, -1.000000000000000000, -0.000000000000000000 ) ) ;
#113 = AXIS2_PLACEMENT_3D ( 'NONE', #260, #202, #228 ) ;
#114 = CONICAL_SURFACE ( 'NONE', #351, 2.999999999999998668, 0.1757959680891359733 ) ;
#115 = CARTESIAN_POINT ( 'NONE',  ( 0.000000000000000000, 1.732050807568871864, 0.000000000000000000 ) ) ;
#116 = ORIENTED_EDGE ( 'NONE', *, *, #331, .T. ) ;
#117 = CYLINDRICAL_SURFACE ( 'NONE', #335, 2.999999999999999112 ) ;
#118 = VERTEX_POINT ( 'NONE', #37 ) ;
#119 = FACE_OUTER_BOUND ( 'NONE', #297, .T. ) ;
#120 = ORIENTED_EDGE ( 'NONE', *, *, #104, .F. ) ;
#121 = EDGE_CURVE ( 'NONE', #399, #123, #74, .T. ) ;
#122 = DIRECTION ( 'NONE',  ( -1.000000000000000000, -2.719262146893782658E-32, 1.224646799147353207E-16 ) ) ;
#123 = VERTEX_POINT ( 'NONE', #342 ) ;
#124 = CC_DESIGN_PERSON_AND_ORGANIZATION_ASSIGNMENT ( #100, #128, ( #53 ) ) ;
#125 = DATE_AND_TIME ( #105, #227 ) ;
#126 = ORIENTED_EDGE ( 'NONE', *, *, #308, .F. ) ;
#127 = EDGE_CURVE ( 'NONE', #156, #268, #28, .T. ) ;
#128 = PERSON_AND_ORGANIZATION_ROLE ( 'design_supplier' ) ;
#129 = VERTEX_POINT ( 'NONE', #204 ) ;
#130 = CALENDAR_DATE ( 2024, 15, 4 ) ;
#131 = DIRECTION ( 'NONE',  ( 0.000000000000000000, 0.000000000000000000, -1.000000000000000000 ) ) ;
#132 = AXIS2_PLACEMENT_3D ( 'NONE', #360, #138, #232 ) ;
#133 = CARTESIAN_POINT ( 'NONE',  ( 0.000000000000000000, 54.88907857498945475, -2.999999999999998668 ) ) ;
#134 = AXIS2_PLACEMENT_3D ( 'NONE', #311, #190, #309 ) ;
#135 = PERSON ( 'UNSPECIFIED', 'UNSPECIFIED', 'UNSPECIFIED', ('UNSPECIFIED'), ('UNSPECIFIED'), ('UNSPECIFIED') ) ;
#136 = DIRECTION ( 'NONE',  ( -0.000000000000000000, -1.000000000000000000, -0.000000000000000000 ) ) ;
#137 = CARTESIAN_POINT ( 'NONE',  ( 0.000000000000000000, 38.00000000000000711, 0.000000000000000000 ) ) ;
#138 = DIRECTION ( 'NONE',  ( 0.000000000000000000, 1.000000000000000000, 0.000000000000000000 ) ) ;
#139 = ADVANCED_FACE ( 'NONE', ( #322 ), #114, .T. ) ;
#140 = PLANE ( 'NONE',  #113 ) ;
#141 = APPROVAL ( #370, 'UNSPECIFIED' ) ;
#142 = CYLINDRICAL_SURFACE ( 'NONE', #368, 6.000000000000003553 ) ;
#143 = CARTESIAN_POINT ( 'NONE',  ( 0.000000000000000000, 0.000000000000000000, 5.000000000000004441 ) ) ;
#144 = CLOSED_SHELL ( 'NONE', ( #32, #236, #388, #139, #179, #192, #277, #395, #301, #79, #72, #49, #383 ) ) ;
#145 = CARTESIAN_POINT ( 'NONE',  ( 0.000000000000000000, -58.73417193456207031, 0.000000000000000000 ) ) ;
#146 = CARTESIAN_POINT ( 'NONE',  ( 7.347880794884125653E-16, 38.00000000000000711, 6.000000000000006217 ) ) ;
#147 = EDGE_LOOP ( 'NONE', ( #3, #186, #271, #326 ) ) ;
#148 = PERSON_AND_ORGANIZATION_ROLE ( 'design_owner' ) ;
#149 = VERTEX_POINT ( 'NONE', #255 ) ;
#150 = VECTOR ( 'NONE', #73, 1000.000000000000227 ) ;
#151 = AXIS2_PLACEMENT_3D ( 'NONE', #137, #169, #371 ) ;
#152 = EDGE_CURVE ( 'NONE', #328, #268, #235, .T. ) ;
#153 = CARTESIAN_POINT ( 'NONE',  ( 0.000000000000000000, 0.000000000000000000, 0.000000000000000000 ) ) ;
#154 = EDGE_LOOP ( 'NONE', ( #85, #65, #303, #197 ) ) ;
#155 = DIRECTION ( 'NONE',  ( 0.000000000000000000, 0.000000000000000000, 1.000000000000000000 ) ) ;
#156 = VERTEX_POINT ( 'NONE', #320 ) ;
#157 = ORIENTED_EDGE ( 'NONE', *, *, #152, .F. ) ;
#158 = VECTOR ( 'NONE', #346, 1000.000000000000000 ) ;
#159 =( GEOMETRIC_REPRESENTATION_CONTEXT ( 3 ) GLOBAL_UNCERTAINTY_ASSIGNED_CONTEXT ( ( #288 ) ) GLOBAL_UNIT_ASSIGNED_CONTEXT ( ( #329, #338, #212 ) ) REPRESENTATION_CONTEXT ( 'NONE', 'WORKASPACE' ) );
#160 = MANIFOLD_SOLID_BREP ( '-1', #144 ) ;
#161 = ORIENTED_EDGE ( 'NONE', *, *, #18, .F. ) ;
#162 = DIRECTION ( 'NONE',  ( 1.110223024625156171E-16, 0.000000000000000000, 1.000000000000000000 ) ) ;
#163 = ORIENTED_EDGE ( 'NONE', *, *, #121, .T. ) ;
#164 = CIRCLE ( 'NONE', #389, 6.000000000000003553 ) ;
#165 = PERSON_AND_ORGANIZATION ( #135, #11 ) ;
#166 = LOCAL_TIME ( 13, 46, 11.00000000000000000, #340 ) ;
#167 = DIRECTION ( 'NONE',  ( 1.110223024625156171E-16, 0.000000000000000000, 1.000000000000000000 ) ) ;
#168 = CONICAL_SURFACE ( 'NONE', #78, 5.000000000000004441, 0.5235987755982999259 ) ;
#169 = DIRECTION ( 'NONE',  ( -0.000000000000000000, -1.000000000000000000, -0.000000000000000000 ) ) ;
#170 = DIRECTION ( 'NONE',  ( -1.000000000000000000, -2.060193094353914044E-48, 9.278284852043555027E-33 ) ) ;
#171 = DIRECTION ( 'NONE',  ( 0.000000000000000000, 0.000000000000000000, -1.000000000000000000 ) ) ;
#172 = DIRECTION ( 'NONE',  ( 0.000000000000000000, -1.000000000000000000, -2.220446049250313574E-16 ) ) ;
#173 = FACE_OUTER_BOUND ( 'NONE', #181, .T. ) ;
#174 = LINE ( 'NONE', #385, #282 ) ;
#175 = LOCAL_TIME ( 13, 46, 11.00000000000000000, #23 ) ;
#176 = DIRECTION ( 'NONE',  ( 0.000000000000000000, 1.000000000000000000, 2.220446049250313574E-16 ) ) ;
#177 = APPLICATION_PROTOCOL_DEFINITION ( 'international standard', 'config_control_design', 1994, #214 ) ;
#178 = ORIENTED_EDGE ( 'NONE', *, *, #359, .T. ) ;
#179 = ADVANCED_FACE ( 'NONE', ( #315 ), #142, .T. ) ;
#180 = CARTESIAN_POINT ( 'NONE',  ( 0.000000000000000000, -58.73417193456207031, -2.999999999999999112 ) ) ;
#181 = EDGE_LOOP ( 'NONE', ( #194, #208, #30 ) ) ;
#182 = AXIS2_PLACEMENT_3D ( 'NONE', #15, #344, #7 ) ;
#183 = AXIS2_PLACEMENT_3D ( 'NONE', #96, #136, #68 ) ;
#184 = PERSON_AND_ORGANIZATION ( #135, #11 ) ;
#185 = ORIENTED_EDGE ( 'NONE', *, *, #60, .F. ) ;
#186 = ORIENTED_EDGE ( 'NONE', *, *, #286, .T. ) ;
#187 = SHAPE_DEFINITION_REPRESENTATION ( #69, #84 ) ;
#188 = CARTESIAN_POINT ( 'NONE',  ( 0.000000000000000000, -58.73417193456207031, 0.000000000000000000 ) ) ;
#189 = APPROVAL_PERSON_ORGANIZATION ( #343, #141, #5 ) ;
#190 = DIRECTION ( 'NONE',  ( -1.000000000000000000, -2.060193094353914044E-48, 9.278284852043555027E-33 ) ) ;
#191 = DIRECTION ( 'NONE',  ( 0.000000000000000000, 0.000000000000000000, -1.000000000000000000 ) ) ;
#192 = ADVANCED_FACE ( 'NONE', ( #77 ), #168, .T. ) ;
#193 = DATE_AND_TIME ( #283, #166 ) ;
#194 = ORIENTED_EDGE ( 'NONE', *, *, #359, .F. ) ;
#195 = COORDINATED_UNIVERSAL_TIME_OFFSET ( 0, 0, .AHEAD. ) ;
#196 = CC_DESIGN_APPROVAL ( #349, ( #53 ) ) ;
#197 = ORIENTED_EDGE ( 'NONE', *, *, #121, .F. ) ;
#198 = DIRECTION ( 'NONE',  ( 0.000000000000000000, 0.000000000000000000, -1.000000000000000000 ) ) ;
#199 = DIRECTION ( 'NONE',  ( -0.000000000000000000, -1.000000000000000000, -0.000000000000000000 ) ) ;
#200 = AXIS2_PLACEMENT_3D ( 'NONE', #380, #112, #198 ) ;
#201 = LINE ( 'NONE', #81, #377 ) ;
#202 = DIRECTION ( 'NONE',  ( 0.000000000000000000, 1.000000000000000000, 0.000000000000000000 ) ) ;
#203 = CC_DESIGN_PERSON_AND_ORGANIZATION_ASSIGNMENT ( #36, #42, ( #233 ) ) ;
#204 = CARTESIAN_POINT ( 'NONE',  ( 8.582413488140294113E-32, 70.75000000000001421, 9.250000000000017764 ) ) ;
#205 = ORIENTED_EDGE ( 'NONE', *, *, #1, .T. ) ;
#206 = ORIENTED_EDGE ( 'NONE', *, *, #341, .F. ) ;
#207 = DIRECTION ( 'NONE',  ( 1.224646799147352961E-16, 0.000000000000000000, 1.000000000000000000 ) ) ;
#208 = ORIENTED_EDGE ( 'NONE', *, *, #56, .T. ) ;
#209 = APPLICATION_PROTOCOL_DEFINITION ( 'international standard', 'config_control_design', 1994, #231 ) ;
#210 = ORIENTED_EDGE ( 'NONE', *, *, #222, .F. ) ;
#211 = EDGE_CURVE ( 'NONE', #87, #123, #387, .T. ) ;
#212 =( NAMED_UNIT ( * ) SI_UNIT ( $, .STERADIAN. ) SOLID_ANGLE_UNIT ( ) );
#213 = ORIENTED_EDGE ( 'NONE', *, *, #263, .F. ) ;
#214 = APPLICATION_CONTEXT ( 'configuration controlled 3d designs of mechanical parts and assemblies' ) ;
#215 = ORIENTED_EDGE ( 'NONE', *, *, #242, .F. ) ;
#216 = COORDINATED_UNIVERSAL_TIME_OFFSET ( 0, 0, .AHEAD. ) ;
#217 = DIRECTION ( 'NONE',  ( 0.000000000000000000, 1.000000000000000000, 2.220446049250313574E-16 ) ) ;
#218 = AXIS2_PLACEMENT_3D ( 'NONE', #50, #76, #386 ) ;
#219 = CC_DESIGN_APPROVAL ( #345, ( #347 ) ) ;
#220 = SECURITY_CLASSIFICATION_LEVEL ( 'unclassified' ) ;
#221 = FACE_OUTER_BOUND ( 'NONE', #63, .T. ) ;
#222 = EDGE_CURVE ( 'NONE', #123, #156, #354, .T. ) ;
#223 = FACE_OUTER_BOUND ( 'NONE', #154, .T. ) ;
#224 = PERSON_AND_ORGANIZATION_ROLE ( 'creator' ) ;
#225 = LINE ( 'NONE', #350, #150 ) ;
#226 = AXIS2_PLACEMENT_3D ( 'NONE', #230, #170, #316 ) ;
#227 = LOCAL_TIME ( 13, 46, 11.00000000000000000, #195 ) ;
#228 = DIRECTION ( 'NONE',  ( 0.000000000000000000, -0.000000000000000000, 1.000000000000000000 ) ) ;
#229 = CARTESIAN_POINT ( 'NONE',  ( 0.000000000000000000, 0.000000000000000000, 0.000000000000000000 ) ) ;
#230 = CARTESIAN_POINT ( 'NONE',  ( -7.703719777548943412E-31, 70.75000000000001421, 0.000000000000000000 ) ) ;
#231 = APPLICATION_CONTEXT ( 'configuration controlled 3d designs of mechanical parts and assemblies' ) ;
#232 = DIRECTION ( 'NONE',  ( 0.000000000000000000, 0.000000000000000000, 1.000000000000000000 ) ) ;
#233 = SECURITY_CLASSIFICATION ( '', '', #220 ) ;
#234 = AXIS2_PLACEMENT_3D ( 'NONE', #188, #313, #131 ) ;
#235 = LINE ( 'NONE', #22, #381 ) ;
#236 = ADVANCED_FACE ( 'NONE', ( #51 ), #394, .T. ) ;
#237 = DIRECTION ( 'NONE',  ( -0.000000000000000000, -1.000000000000000000, -0.000000000000000000 ) ) ;
#238 = ORIENTED_EDGE ( 'NONE', *, *, #127, .T. ) ;
#239 = DIRECTION ( 'NONE',  ( 0.000000000000000000, 0.000000000000000000, -1.000000000000000000 ) ) ;
#240 = ORIENTED_EDGE ( 'NONE', *, *, #331, .F. ) ;
#241 = ORIENTED_EDGE ( 'NONE', *, *, #222, .T. ) ;
#242 = EDGE_CURVE ( 'NONE', #118, #156, #174, .T. ) ;
#243 = FACE_OUTER_BOUND ( 'NONE', #24, .T. ) ;
#244 = ORIENTED_EDGE ( 'NONE', *, *, #341, .T. ) ;
#245 = AXIS2_PLACEMENT_3D ( 'NONE', #253, #66, #191 ) ;
#246 = AXIS2_PLACEMENT_3D ( 'NONE', #153, #396, #86 ) ;
#247 = ORIENTED_EDGE ( 'NONE', *, *, #321, .T. ) ;
#248 = DIRECTION ( 'NONE',  ( 1.000000000000000000, 2.060193094353914652E-48, -9.278284852043556395E-33 ) ) ;
#249 = EDGE_CURVE ( 'NONE', #123, #399, #52, .T. ) ;
#250 = DIRECTION ( 'NONE',  ( -9.278284852043555027E-33, 0.000000000000000000, -1.000000000000000000 ) ) ;
#251 = AXIS2_PLACEMENT_3D ( 'NONE', #101, #6, #167 ) ;
#252 = CIRCLE ( 'NONE', #333, 9.250000000000007105 ) ;
#253 = CARTESIAN_POINT ( 'NONE',  ( 0.000000000000000000, 54.88907857498945475, 0.000000000000000000 ) ) ;
#254 = CARTESIAN_POINT ( 'NONE',  ( 0.000000000000000000, 0.000000000000000000, 0.000000000000000000 ) ) ;
#255 = CARTESIAN_POINT ( 'NONE',  ( -2.651382592411458081E-45, 63.30154004628609243, -2.999999999999978240 ) ) ;
#256 = CARTESIAN_POINT ( 'NONE',  ( 0.000000000000000000, -58.73417193456207031, 0.000000000000000000 ) ) ;
#257 = DIRECTION ( 'NONE',  ( -0.000000000000000000, -1.000000000000000000, -0.000000000000000000 ) ) ;
#258 = DIRECTION ( 'NONE',  ( -0.000000000000000000, -1.000000000000000000, -0.000000000000000000 ) ) ;
#259 = CIRCLE ( 'NONE', #317, 5.000000000000004441 ) ;
#260 = CARTESIAN_POINT ( 'NONE',  ( -6.000000000000001776, 0.000000000000000000, 0.000000000000000000 ) ) ;
#261 = APPROVAL_PERSON_ORGANIZATION ( #295, #345, #304 ) ;
#262 = CALENDAR_DATE ( 2024, 15, 4 ) ;
#263 = EDGE_CURVE ( 'NONE', #129, #374, #59, .T. ) ;
#264 = ORIENTED_EDGE ( 'NONE', *, *, #25, .F. ) ;
#265 = CC_DESIGN_PERSON_AND_ORGANIZATION_ASSIGNMENT ( #184, #70, ( #347 ) ) ;
#266 = APPROVAL_STATUS ( 'not_yet_approved' ) ;
#267 = CIRCLE ( 'NONE', #99, 9.249999999999994671 ) ;
#268 = VERTEX_POINT ( 'NONE', #82 ) ;
#269 = MECHANICAL_CONTEXT ( 'NONE', #214, 'mechanical' ) ;
#270 = DIRECTION ( 'NONE',  ( 0.000000000000000000, 0.000000000000000000, 1.000000000000000000 ) ) ;
#271 = ORIENTED_EDGE ( 'NONE', *, *, #249, .F. ) ;
#272 = CC_DESIGN_PERSON_AND_ORGANIZATION_ASSIGNMENT ( #13, #224, ( #53 ) ) ;
#273 = EDGE_LOOP ( 'NONE', ( #401, #71 ) ) ;
#274 = CIRCLE ( 'NONE', #357, 2.999999999999989342 ) ;
#275 = APPROVAL_ROLE ( '' ) ;
#276 = CARTESIAN_POINT ( 'NONE',  ( 5.510910596163092514E-16, 54.88907857498945475, 2.999999999999998668 ) ) ;
#277 = ADVANCED_FACE ( 'NONE', ( #173 ), #110, .T. ) ;
#278 = DATE_TIME_ROLE ( 'classification_date' ) ;
#279 = LINE ( 'NONE', #314, #12 ) ;
#280 = CC_DESIGN_DATE_AND_TIME_ASSIGNMENT ( #40, #278, ( #233 ) ) ;
#281 = CARTESIAN_POINT ( 'NONE',  ( 3.673940397442058882E-16, -58.73417193456207031, 2.999999999999999112 ) ) ;
#282 = VECTOR ( 'NONE', #107, 1000.000000000000000 ) ;
#283 = CALENDAR_DATE ( 2024, 15, 4 ) ;
#284 = CIRCLE ( 'NONE', #293, 9.249999999999994671 ) ;
#285 = CYLINDRICAL_SURFACE ( 'NONE', #183, 2.999999999999999112 ) ;
#286 = EDGE_CURVE ( 'NONE', #27, #399, #201, .T. ) ;
#287 = CARTESIAN_POINT ( 'NONE',  ( -7.703719777548943412E-31, 63.30154004628609243, 1.069734080123254335E-14 ) ) ;
#288 = UNCERTAINTY_MEASURE_WITH_UNIT (LENGTH_MEASURE( 1.000000000000000082E-05 ), #329, 'distance_accuracy_value', 'NONE');
#289 = DIRECTION ( 'NONE',  ( 0.000000000000000000, 1.000000000000000000, 0.000000000000000000 ) ) ;
#290 = CARTESIAN_POINT ( 'NONE',  ( 0.000000000000000000, 54.88907857498945475, -2.999999999999998668 ) ) ;
#291 = DIRECTION ( 'NONE',  ( 0.000000000000000000, -0.9845876424537673977, -0.1748918932578981955 ) ) ;
#292 = FACE_OUTER_BOUND ( 'NONE', #273, .T. ) ;
#293 = AXIS2_PLACEMENT_3D ( 'NONE', #306, #248, #250 ) ;
#294 = CARTESIAN_POINT ( 'NONE',  ( 0.000000000000000000, -58.73417193456207031, -6.000000000000003553 ) ) ;
#295 = PERSON_AND_ORGANIZATION ( #135, #11 ) ;
#296 = ORIENTED_EDGE ( 'NONE', *, *, #60, .T. ) ;
#297 = EDGE_LOOP ( 'NONE', ( #215, #57, #55, #305 ) ) ;
#298 = LINE ( 'NONE', #88, #47 ) ;
#299 = AXIS2_PLACEMENT_3D ( 'NONE', #254, #379, #106 ) ;
#300 = ORIENTED_EDGE ( 'NONE', *, *, #355, .T. ) ;
#301 = ADVANCED_FACE ( 'NONE', ( #292 ), #140, .F. ) ;
#302 = DIRECTION ( 'NONE',  ( 5.963966542035860934E-33, 0.7660444431189815662, 0.6427876096865349220 ) ) ;
#303 = ORIENTED_EDGE ( 'NONE', *, *, #211, .T. ) ;
#304 = APPROVAL_ROLE ( '' ) ;
#305 = ORIENTED_EDGE ( 'NONE', *, *, #127, .F. ) ;
#306 = CARTESIAN_POINT ( 'NONE',  ( -7.703719777548943412E-31, 70.75000000000001421, 0.000000000000000000 ) ) ;
#307 = AXIS2_PLACEMENT_3D ( 'NONE', #392, #176, #93 ) ;
#308 = EDGE_CURVE ( 'NONE', #87, #27, #29, .T. ) ;
#309 = DIRECTION ( 'NONE',  ( 9.278284852043555027E-33, 0.000000000000000000, 1.000000000000000000 ) ) ;
#310 = CALENDAR_DATE ( 2024, 15, 4 ) ;
#311 = CARTESIAN_POINT ( 'NONE',  ( -7.703719777548943412E-31, 70.75000000000001421, 0.000000000000000000 ) ) ;
#312 = APPROVAL_DATE_TIME ( #8, #141 ) ;
#313 = DIRECTION ( 'NONE',  ( -0.000000000000000000, -1.000000000000000000, -0.000000000000000000 ) ) ;
#314 = CARTESIAN_POINT ( 'NONE',  ( 7.347880794884123680E-16, -58.73417193456207031, 6.000000000000003553 ) ) ;
#315 = FACE_OUTER_BOUND ( 'NONE', #393, .T. ) ;
#316 = DIRECTION ( 'NONE',  ( 9.278284852043555027E-33, 0.000000000000000000, 1.000000000000000000 ) ) ;
#317 = AXIS2_PLACEMENT_3D ( 'NONE', #367, #31, #64 ) ;
#318 = CONICAL_SURFACE ( 'NONE', #246, 5.000000000000004441, 0.5235987755982999259 ) ;
#319 = DIRECTION ( 'NONE',  ( 0.000000000000000000, 0.000000000000000000, -1.000000000000000000 ) ) ;
#320 = CARTESIAN_POINT ( 'NONE',  ( 7.347880794884123680E-16, 1.732050807568871864, -6.000000000000003553 ) ) ;
#321 = EDGE_CURVE ( 'NONE', #374, #129, #252, .T. ) ;
#322 = FACE_OUTER_BOUND ( 'NONE', #147, .T. ) ;
#323 = CONICAL_SURFACE ( 'NONE', #245, 2.999999999999998668, 0.1757959680891359733 ) ;
#324 = DIRECTION ( 'NONE',  ( -0.000000000000000000, -1.000000000000000000, -0.000000000000000000 ) ) ;
#325 = CC_DESIGN_APPROVAL ( #141, ( #233 ) ) ;
#326 = ORIENTED_EDGE ( 'NONE', *, *, #211, .F. ) ;
#327 = CARTESIAN_POINT ( 'NONE',  ( 3.673940397442059868E-16, 63.30154004628609243, 3.000000000000000000 ) ) ;
#328 = VERTEX_POINT ( 'NONE', #143 ) ;
#329 =( LENGTH_UNIT ( ) NAMED_UNIT ( * ) SI_UNIT ( .MILLI., .METRE. ) );
#330 = ORIENTED_EDGE ( 'NONE', *, *, #242, .T. ) ;
#331 = EDGE_CURVE ( 'NONE', #268, #156, #164, .T. ) ;
#332 = DATE_AND_TIME ( #262, #175 ) ;
#333 = AXIS2_PLACEMENT_3D ( 'NONE', #48, #172, #20 ) ;
#334 = ORIENTED_EDGE ( 'NONE', *, *, #104, .T. ) ;
#335 = AXIS2_PLACEMENT_3D ( 'NONE', #145, #324, #239 ) ;
#336 = VECTOR ( 'NONE', #291, 1000.000000000000114 ) ;
#337 = PRODUCT_RELATED_PRODUCT_CATEGORY ( 'detail', '', ( #353 ) ) ;
#338 =( NAMED_UNIT ( * ) PLANE_ANGLE_UNIT ( ) SI_UNIT ( $, .RADIAN. ) );
#339 = EDGE_LOOP ( 'NONE', ( #362, #330, #240, #157 ) ) ;
#340 = COORDINATED_UNIVERSAL_TIME_OFFSET ( 0, 0, .AHEAD. ) ;
#341 = EDGE_CURVE ( 'NONE', #149, #87, #400, .T. ) ;
#342 = CARTESIAN_POINT ( 'NONE',  ( 0.000000000000000000, 38.00000000000000711, -6.000000000000006217 ) ) ;
#343 = PERSON_AND_ORGANIZATION ( #135, #11 ) ;
#344 = DIRECTION ( 'NONE',  ( -0.000000000000000000, -1.000000000000000000, -0.000000000000000000 ) ) ;
#345 = APPROVAL ( #266, 'UNSPECIFIED' ) ;
#346 = DIRECTION ( 'NONE',  ( -0.000000000000000000, -1.000000000000000000, -0.000000000000000000 ) ) ;
#347 = PRODUCT_DEFINITION ( 'UNKNOWN', '', #53, #384 ) ;
#348 = EDGE_LOOP ( 'NONE', ( #296, #334, #247, #41 ) ) ;
#349 = APPROVAL ( #34, 'UNSPECIFIED' ) ;
#350 = CARTESIAN_POINT ( 'NONE',  ( 1.132798289211302487E-15, 70.75000000000001421, -9.249999999999994671 ) ) ;
#351 = AXIS2_PLACEMENT_3D ( 'NONE', #75, #16, #46 ) ;
#352 = DIRECTION ( 'NONE',  ( 0.000000000000000000, 0.8660254037844381525, 0.5000000000000008882 ) ) ;
#353 = PRODUCT ( 'RT10_S12', 'RT10_S12', '', ( #269 ) ) ;
#354 = LINE ( 'NONE', #294, #375 ) ;
#355 = EDGE_CURVE ( 'NONE', #369, #129, #298, .T. ) ;
#356 = DIRECTION ( 'NONE',  ( 0.000000000000000000, 0.000000000000000000, 1.000000000000000000 ) ) ;
#357 = AXIS2_PLACEMENT_3D ( 'NONE', #287, #217, #162 ) ;
#358 = CIRCLE ( 'NONE', #251, 2.999999999999989342 ) ;
#359 = EDGE_CURVE ( 'NONE', #58, #374, #267, .T. ) ;
#360 = CARTESIAN_POINT ( 'NONE',  ( 0.000000000000000000, 1.732050807568871864, 0.000000000000000000 ) ) ;
#361 = APPROVAL_PERSON_ORGANIZATION ( #165, #349, #275 ) ;
#362 = ORIENTED_EDGE ( 'NONE', *, *, #97, .F. ) ;
#363 = DIRECTION ( 'NONE',  ( 1.000000000000000000, 0.000000000000000000, 0.000000000000000000 ) ) ;
#364 = ORIENTED_EDGE ( 'NONE', *, *, #1, .F. ) ;
#365 = EDGE_CURVE ( 'NONE', #328, #118, #259, .T. ) ;
#366 = ORIENTED_EDGE ( 'NONE', *, *, #18, .T. ) ;
#367 = CARTESIAN_POINT ( 'NONE',  ( 0.000000000000000000, 0.000000000000000000, 0.000000000000000000 ) ) ;
#368 = AXIS2_PLACEMENT_3D ( 'NONE', #256, #258, #171 ) ;
#369 = VERTEX_POINT ( 'NONE', #327 ) ;
#370 = APPROVAL_STATUS ( 'not_yet_approved' ) ;
#371 = DIRECTION ( 'NONE',  ( 0.000000000000000000, 0.000000000000000000, -1.000000000000000000 ) ) ;
#372 = CARTESIAN_POINT ( 'NONE',  ( -7.703719777548943412E-31, 80.00000000000000000, 2.620311740162189660E-15 ) ) ;
#373 = APPROVAL_DATE_TIME ( #193, #349 ) ;
#374 = VERTEX_POINT ( 'NONE', #391 ) ;
#375 = VECTOR ( 'NONE', #199, 1000.000000000000000 ) ;
#376 = LOCAL_TIME ( 13, 46, 11.00000000000000000, #216 ) ;
#377 = VECTOR ( 'NONE', #17, 1000.000000000000114 ) ;
#378 = CC_DESIGN_PERSON_AND_ORGANIZATION_ASSIGNMENT ( #90, #148, ( #353 ) ) ;
#379 = DIRECTION ( 'NONE',  ( -0.000000000000000000, -1.000000000000000000, -0.000000000000000000 ) ) ;
#380 = CARTESIAN_POINT ( 'NONE',  ( 0.000000000000000000, 38.00000000000000711, 0.000000000000000000 ) ) ;
#381 = VECTOR ( 'NONE', #352, 1000.000000000000000 ) ;
#382 = CC_DESIGN_SECURITY_CLASSIFICATION ( #233, ( #53 ) ) ;
#383 = ADVANCED_FACE ( 'NONE', ( #119 ), #318, .T. ) ;
#384 = DESIGN_CONTEXT ( 'detailed design', #231, 'design' ) ;
#385 = CARTESIAN_POINT ( 'NONE',  ( 6.123233995736772199E-16, 0.000000000000000000, -5.000000000000004441 ) ) ;
#386 = DIRECTION ( 'NONE',  ( 9.278284852043555027E-33, 0.000000000000000000, 1.000000000000000000 ) ) ;
#387 = LINE ( 'NONE', #290, #336 ) ;
#388 = ADVANCED_FACE ( 'NONE', ( #243 ), #117, .T. ) ;
#389 = AXIS2_PLACEMENT_3D ( 'NONE', #115, #83, #270 ) ;
#390 = CARTESIAN_POINT ( 'NONE',  ( 0.000000000000000000, 54.88907857498945475, 0.000000000000000000 ) ) ;
#391 = CARTESIAN_POINT ( 'NONE',  ( 1.132798289211302684E-15, 70.75000000000001421, -9.249999999999996447 ) ) ;
#392 = CARTESIAN_POINT ( 'NONE',  ( 0.000000000000000000, 70.75000000000001421, 1.235123114895486967E-14 ) ) ;
#393 = EDGE_LOOP ( 'NONE', ( #33, #43, #116, #210 ) ) ;
#394 = CONICAL_SURFACE ( 'NONE', #218, 9.250000000000007105, 0.6981317007977259070 ) ;
#395 = ADVANCED_FACE ( 'NONE', ( #398 ), #38, .T. ) ;
#396 = DIRECTION ( 'NONE',  ( 0.000000000000000000, 1.000000000000000000, 0.000000000000000000 ) ) ;
#397 = EDGE_LOOP ( 'NONE', ( #120, #205, #300, #94 ) ) ;
#398 = FACE_OUTER_BOUND ( 'NONE', #397, .T. ) ;
#399 = VERTEX_POINT ( 'NONE', #146 ) ;
#400 = LINE ( 'NONE', #180, #62 ) ;
#401 = ORIENTED_EDGE ( 'NONE', *, *, #365, .T. ) ;
ENDSEC;
END-ISO-10303-21;
